E-Chords
Ceremonya

Hysteria(Tabs)

Ceremonya

roll up this ad to continue

Intro 
Strummed chords over 'drum flops'. 
e-------------------------------------------------------------------| 
B-------------------------------------------------------------------| 
G---------6-----8-------------8------6------------------------------| 
D--8------6---- 8-------------8------6------8-----------------------| 
A--8------4-----6-------------6------4------8-----------------------| 
E --6----------------------------------------6----------------------| 1x 

Verse 
After 4 rounds of drums the guitar kicks in. Bass and vocals kick in after 4 rounds of  
guitar and drums. 
e-----------------------------------------------------------| 
B-----------------------------------------------------------| 
G-----66--8888--88--66--------------------------------------| 
D-88--66--8888--88--66--8888--------------------------------| 
A-88--44--6666--66--44--8888--------------------------------| 
E-66---------------------6666-------------------------------|8x 

Chorus 
'Hysteria, Hysteria' 
e---------------------------------------------------------------------| 
B---------------------------------------------------------------------| 
G------------6--------------------------------------------------------| 
D--666666---6----88888888---------------------------------------------| 
A--666666---4----88888888---------------------------------------------| 
E--444444--------66666666---------------------------------------------|     4x 

Verse 4x ('No birth without blood...') 
Chorus 4x ('Hysteria, Hysteria') 

Outro 
4 rounds of drums only followed by 4 rounds of drums and 'Ooh's'. After this the guitar, 
bass and vocals kick in. 
'Hysteria, Hysteria' 
e------------------------------------------------------------| 
B------------------------------------------------------------| 
G-----66--8888--88--66---------------------------------------| 
D-88--66--8888--88--66--8888---------------------------------| 
A-88--44--6666--66--44--8888---------------------------------| 
E-66---------------------6666--------------------------------|  4x 

 
share this page

See Also: