E-Chords
Cat Power

Night Time Back Of Your Head(Tabs)

Cat Power

roll up this ad to continue

Main Theme 

e|--------------------------| 
B|-------7-0------0---------| 
G|--------------7---0-------| 
D|--------------------------| 
A|----7---------------------| 
E|------------7-------------| 


e|-------------------0------| 
B|-------7-0-----------0----| 
G|----------------7---------| 
D|--------------------------| 
A|----7---------------------| 
E|------------7-------------| 

Then the 'Chorus' 

e|-------------------------------------------------------------| 
B|----------3------------------------3-----3------------0------|     
G|------------0--2--------2----------------------2--------2----| 
D|-------------------------------------------------------------| 
A|------3-------------------------------3-----3----------------| 
E|-------------------2--2---2--2-------------------2--2--------| 
share this page

See Also: