E-Chords
Cat Power

He War(Tabs)

Cat Power

roll up this ad to continue

Bem simples de tocar, mas escute a música pra pegar o tempo certinho de cada nota. ;) 
 
Introdução: 
 
e|------------------------------------------------------------| 
B|------------------------------------------------------------| 
G|--------------------------------5-5-------------------------| 
D|--8--8--7-----7-7-7-------------5-5-5----5-5-5-5------------|  {x4} 
A|--8--8--7-----7-7-7-------------3-3-5----5-5-5-5------------| 
E|--6--6--5-----5-5-5-----------------3----3-3-3-3------------| 
 
e|------------------------------------------------------------| 
B|--5-5-8-5-------5-5-5-8-8-8---------------------------------| 
G|------------------------------------------------------------| 
D|------------------------------------------------------------|  {x2} 
A|------------------------------------------------------------| 
E|------------------------------------------------------------| 
 
 
Verso:  
 
e|------------------------------------------------------------| 
B|------------------------------------------------------------| 
G|--------------------------------5-5-------------------------| 
D|--8--8--7-----7-7-7-------------5-5-5----5-5-5-5------------|  {x4} 
A|--8--8--7-----7-7-7-------------3-3-5----5-5-5-5------------| 
E|--6--6--5-----5-5-5-----------------3----3-3-3-3------------| 
 
e|------------------------------------------------------------| 
B|--5-5-8-5-------5-5-5-8-8-8---------------------------------| 
G|------------------------------------------------------------| 
D|------------------------------------------------------------|  {x2} 
A|------------------------------------------------------------| 
E|------------------------------------------------------------| 
 
 
Refrão: 
 
He war He war... 
e|------------------------------------------------------------| 
B|------------------------------------------------------------| 
G|--------------------------------5-5-------------------------| 
D|--8--8--7-----7-7-7-------------5-5-5----5-5-5-5------------|  {x4} 
A|--8--8--7-----7-7-7-------------3-3-5----5-5-5-5------------| 
E|--6--6--5-----5-5-5-----------------3----3-3-3-3------------| 
 
e|------------------------------------------------------------| 
B|--5-5-8-5-------5-5-5-8-8-8---------------------------------| 
G|------------------------------------------------------------| 
D|------------------------------------------------------------|  {x2} 
A|------------------------------------------------------------| 
E|------------------------------------------------------------| 
 
Hey Hey Hey... 
e|------------------------------------------------------------| 
B|------------------------------------------------------------| 
G|--------------------------------5-5-------------------------| 
D|--8--8--7-----7-7-7-------------5-5-5----5-5-5-5------------|   {x4} 
A|--8--8--7-----7-7-7-------------3-3-5----5-5-5-5------------| 
E|--6--6--5-----5-5-5-----------------3----3-3-3-3------------| 
 
e|------------------------------------------------------------| 
B|--5-5-8-5-------5-5-5-8-8-8---------------------------------| 
G|------------------------------------------------------------| 
D|------------------------------------------------------------|  {x2} 
A|------------------------------------------------------------| 
E|------------------------------------------------------------| 
 
e tocar novamente: 
- Verso  
- Refrão 
share this page

See Also: