E-Chords
Cap'n Jazz

Oh Messy Life(Tabs)

Cap'n Jazz

roll up this ad to continue

Intro/Verse: 
e|---------------------------------10-10-10-10-10-10-7-7-7-7-7-7-7-7-7-7--| 
B|-8-8-8-8-8-8-8-8-8-8-8-8-8-8-8-8----------------------------------------| 
G|------------------------------------------------------------------------| 
D|------------------------------------------------------------------------| 
A|------------------------------------------------------------------------| 
E|------------------------------------------------------------------------| 
 |                                                                        | 
e|-15-15---15-15----15-15-------------------------------------------------| 
B|---------------------------15----15-15---15-15----10/12-12----12--------| 
G|------------------------------------------------------------------------| 
D|------------------------------------------------------------------------| 
A|------------------------------------------------------------------------| 
E|------------------------------------------------------------------------| 

e|---------------------------------10-10-10-10-10-10-7-7-7-7-7-7-7-7-7-7--| 
B|-8-8-8-8-8-8-8-8-8-8-8-8-8-8-8-8----------------------------------------| 
G|------------------------------------------------------------------------| 
D|------------------------------------------------------------------------| 
A|------------------------------------------------------------------------| 
E|------------------------------------------------------------------------| 
 |                                                                        | 
e|--------------------------------------------------15-15----15-15--------| 
B|-----1010--10---10/12--12---15-15------15-15----------------------------| 
G|------------------------------------------------------------------------| 
D|------------------------------------------------------------------------| 
A|------------------------------------------------------------------------| 
E|------------------------------------------------------------------------| 

e|---------------------------------10-10-10-10-10-10-7-7-7-7-7-7-7-7-7-7--| 
B|-8-8-8-8-8-8-8-8-8-8-8-8-8-8-8-8----------------------------------------| 
G|------------------------------------------------------------------------| 
D|------------------------------------------------------------------------| 
A|------------------------------------------------------------------------| 
E|------------------------------------------------------------------------| 
 |                                                                        | 
e|------------------------------------------------------------------------| 
B|--15-15---15-15---15-15-----10-10---10-10---10/12---12-----10/12--------| 
G|--------------------------------------------------------12--------------| 
D|------------------------------------------------------------------------| 
A|------------------------------------------------------------------------| 
E|------------------------------------------------------------------------| 

Just kinda continues with that doodling while the one guitar starts playing this: 
e|---------------------------------------------------| 
B|-8-8-8-8-8-8-8-8-8-8-8-8-8-8-8-8-------------------| 
G|---------------------------------------------------| 
D|---------------------------------0~~~~~~~~~~~~~~---| 
A|---------------------------------------------------| 
E|---------------------------------------------------| 


Chorus: 
e|-----------------------------------------------------------------| 
B|-----------------------------------------------------------------| 
G|---------------------------------5-5-5-5-5-5-5-5-5-5-5-5-5-5-5-5-|x2 
D|-5-5-5-5-5-5-5-5-5-5-5-5-5-5-5-5-5-5-5-5-5-5-5-5-5-5-5-5-5-5-5-5-| 
A|-5-5-5-5-5-5-5-5-5-5-5-5-5-5-5-5-3-3-3-3-3-3-3-3-3-3-3-3-3-3-3-3-| 
E|-3-3-3-3-3-3-3-3-3-3-3-3-3-3-3-3---------------------------------| 

e|-------------------------------------------| 
B|-------------------------------------------| 
G|---------12---(12)\----------12---(12)\----| 
D|-5--xxxx-9----(9)-\--5--xxxx-9----(9)-\----| 
A|-5--xxxx-10---(10)\--5--xxxx-10---(10)\----| 
E|-3--xxxx-------------3--xxxx---------------| 

e|-----------------------------------------------------------------| 
B|-----------------------------------------------------------------| 
G|---------------------------------5-5-5-5-5-5-5-5-5-5-5-5-5-5-5-5-|x2 
D|-5-5-5-5-5-5-5-5-5-5-5-5-5-5-5-5-5-5-5-5-5-5-5-5-5-5-5-5-5-5-5-5-| 
A|-5-5-5-5-5-5-5-5-5-5-5-5-5-5-5-5-3-3-3-3-3-3-3-3-3-3-3-3-3-3-3-3-| 
E|-3-3-3-3-3-3-3-3-3-3-3-3-3-3-3-3---------------------------------| 

e|-------------------------------------------| 
B|-------------------------------------------| 
G|---------12---(12)\----------12---(12)\----| 
D|-5--xxxx-9----(9)-\--5--xxxx-9----(9)-\----| 
A|-5--xxxx-10---(10)\--5--xxxx-10---(10)\----| 
E|-3--xxxx-------------3--xxxx---------------| 


Verse: 
e|-------------------------------------------------| 
B|-------------------------------------------------| 
G|--~---------------------12------------12---------|x4 
D|-12~~~~~~~~~~~~---------9-------------9----------| 
A|------------------------10------------10---------| 
E|-------------------------------------------------| 
 |                                                 | 
e|-------p-----------------------------------------| 
B|-3--33533--3333----------3-------------3---------| 
G|-4--44--4--4444----------4-------------4---------| 
D|-5--55--5--5555--5-------5------5------5---------| 
A|-----------------5--5555-----55-5-5555---5555-55-| 
E|-----------------3--3333-----33-3-3333---3333-33-| 
                      pm..     ..   ....   .... 

Chorus: 
e|-----------------------------------------------------------------| 
B|-----------------------------------------------------------------| 
G|---------------------------------5-5-5-5-5-5-5-5-5-5-5-5-5-5-5-5-|x2 
D|-5-5-5-5-5-5-5-5-5-5-5-5-5-5-5-5-5-5-5-5-5-5-5-5-5-5-5-5-5-5-5-5-| 
A|-5-5-5-5-5-5-5-5-5-5-5-5-5-5-5-5-3-3-3-3-3-3-3-3-3-3-3-3-3-3-3-3-| 
E|-3-3-3-3-3-3-3-3-3-3-3-3-3-3-3-3---------------------------------| 

e|-------------------------------------------| 
B|-------------------------------------------| 
G|---------12---(12)\----------12---(12)\----| 
D|-5--xxxx-9----(9)-\--5--xxxx-9----(9)-\----| 
A|-5--xxxx-10---(10)\--5--xxxx-10---(10)\----| 
E|-3--xxxx-------------3--xxxx---------------| 
share this page

See Also: