E-Chords
Cantemos a Jeová

136(Tabs)

Cantemos a Jeová

roll up this ad to continue

E|---------------------------------------------| 
B|--5--5--5-5-5-----8--5-----------------------| 
G|---------------7--------7--9--9--7-----------| 
D|-------------------------------------9--7----| 
A|---------------------------------------------| 
E|---------------------------------------------| 
 
(Parte 1) 
 
E|---------------------------------------------| 
B|--5--5--5-5-5-----8--5-----------------------| 
G|---------------7--------7--9--9--7---4--6----| 
D|---------------------------------------------| 
A|---------------------------------------------| 
E|---------------------------------------------| 
 
E|------------------------------------------------| 
B|------10-10-10--9--7-------8---5--7-----5-------| 
G|--9-------------------9--------------7-----6--4-| 
D|------------------------------------------------| 
A|------------------------------------------------| 
E|------------------------------------------------| 
 
E|----------------------------5--4------------2--4--5--7---| 
B|--5--3-----------------------------5--3--5---------------| 
G|--------6--4-------4-6-7---------------------------------| 
D|--------------7------------------------------------------| 
A|---------------------------------------------------------| 
E|---------------------------------------------------------|  

(Refrao) 
 
E|----5--5--7--7--9----------------------------| 
B|-5------------------5--7--8--9--8--10--12-10-| 
G|---------------------------------------------| 
D|---------------------------------------------| 
A|---------------------------------------------| 
E|---------------------------------------------| 
 
 
E|----5--5--7--7--9------10--9--7--5--7--4--5--| 
B|-5-----------------10------------------------| 
G|---------------------------------------------| 
D|---------------------------------------------| 
A|---------------------------------------------| 
E|---------------------------------------------| 
share this page

See Also: