E-Chords
Bulldog

Antecendente Policiales(Tabs)

Bulldog

Intro 
------------------------------------------------------------------ 
------------------------------------------------------------------ 
-----6-----6---10--8--6------------------------------------------- 
--6--6--6--6---10--8--6---6-5-6-8-6-5-6-5-6-8-6-5-6-5-3-5-3-1----- 
--6--4--6--4---08--6--4---------------------------------------4--- 
--4-----4--------------------------------------------------------- 
 
------------------------------------------------------------------ 
------------------------------------------------------------------ 
-------------------------10-10-10-14-12-10----------14-12-10------ 
-6-5-6-8-6-5-6-5-6-8-6-5-------------------13-13-13----------12--- 
------------------------------------------------------------------ 
------------------------------------------------------------------ 
 
 
Verso 
------------------------------------------------------------------ 
------------------------------------------------------------------ 
-----6-----6---10--8--6------------------------------------------- 
--6--6--6--6---10--8--6------------------------------------------- 
--6--4--6--4---08--6--4------------------------------------------- 
--4-----4--------------------------------------------------------- 
 
Coro 
------------------------------------------------------------------ 
------------------------------------------------------------------ 
--6----8----10----6----6----8--------6---------------------------- 
--6----8----10----6----6----8----6---6---6------------------------ 
--4----6----08----4----4----6----6---4---6------------------------ 
---------------------------------4-------4------------------------ 
 
  
 

roll up this ad to continue

share this page

See Also: