E-Chords
BTS

The Truth Untold(Tabs)

BTS

roll up this ad to continue

Key: G
E|-0-2-4-2-0-0-----0-2-4-2-0-2-0---4-0-2-0-----0-5-4---0-7-4-4-2-4-2-0-------| 
B|-------------4-----------------------------2-------------------------2-----| 
G|---------------------------------------------------------------------------| 
D|---------------------------------------------------------------------------| 
A|---------------------------------------------------------------------------| 
E|---------------------------------------------------------------------------| 

E|-0-2-4-2-0-0-----0-2-4-2-0-2-0---4-2-0-2-4-----0-5-4---0-7-4-4-2-4-2-0-0---| 
B|-------------4-------------------------------2---------------------------2-| 
G|---------------------------------------------------------------------------| 
D|---------------------------------------------------------------------------| 
A|---------------------------------------------------------------------------| 
E|---------------------------------------------------------------------------| 

E|-0-----------0---2---4-------------4---------------------0---2---4-2-0-----| 
B|---4-2---4-------------4-4-4-4-2-0---4-4-4-4-2-0-2---4---------------------| 
G|---------------------------------------------------------------------------| 
D|---------------------------------------------------------------------------| 
A|---------------------------------------------------------------------------| 
E|---------------------------------------------------------------------------| 

E|-------0-2-0---0-4-4-4-2---2-2-2-0---2-0-2-0-2-4-2-0---------7-4-4-4-2-2-2-| 
B|-2-0-2-----------------------------------------------2-0-------------------| 
G|---------------------------------------------------------1-----------------| 
D|---------------------------------------------------------------------------| 
A|---------------------------------------------------------------------------| 
E|---------------------------------------------------------------------------| 

E|-4-2-0---------------------------------------------------------------------| 
B|---------------------------------------------------------------------------| 
G|---------------------------------------------------------------------------| 
D|---------------------------------------------------------------------------| 
A|---------------------------------------------------------------------------| 
E|---------------------------------------------------------------------------| 

E|-------0-2-0---0-4-4-4-2---2-2-2-0---2-0-2-0-2-4-2-0---------7-4-4-4-2-2-2-| 
B|-2-0-2-----------------------------------------------2-0-------------------| 
G|---------------------------------------------------------1-----------------| 
D|---------------------------------------------------------------------------| 
A|---------------------------------------------------------------------------| 
E|---------------------------------------------------------------------------| 

E|-4-2-0-------0-5-4---5-4---5-4---------------------------------------------| 
B|---------2-2---------------------------------------------------------------| 
G|---------------------------------------------------------------------------| 
D|---------------------------------------------------------------------------| 
A|---------------------------------------------------------------------------| 
E|---------------------------------------------------------------------------| 

E|-0-2-4-2-0-0-----0-2-4-2-0-2-0---4-0-2-4-----0-5-4---0-7-4-4-2-4-2-4-7-9-7-| 
B|-------------4-----------------------------2-------------------------------| 
G|---------------------------------------------------------------------------| 
D|---------------------------------------------------------------------------| 
A|---------------------------------------------------------------------------| 
E|---------------------------------------------------------------------------| 

E|-9-9-7-9-------------------------------------------------------------------| 
B|---------------------------------------------------------------------------| 
G|---------------------------------------------------------------------------| 
D|---------------------------------------------------------------------------| 
A|---------------------------------------------------------------------------| 
E|---------------------------------------------------------------------------| 

E|-------------0-------4-------------4---------------------0---2-------------| 
B|-----------------7-----4-4-4-4-2-0---4-4-4-4-2-0-2---4-----------4-2-0-----| 
G|-9-8-6---8-----------------------------------------------------------------| 
D|---------------------------------------------------------------------------| 
A|---------------------------------------------------------------------------| 
E|---------------------------------------------------------------------------| 

E|-------0-2-0---0-4-4-4-2---2-2-2-0---2-0-2-0-2-4-2-0---------7-4-4-4-2-2-2-| 
B|-2-0-2-----------------------------------------------2-0-------------------| 
G|---------------------------------------------------------1-----------------| 
D|---------------------------------------------------------------------------| 
A|---------------------------------------------------------------------------| 
E|---------------------------------------------------------------------------| 

E|-4-2-0---------------------------------------------------------------------| 
B|---------------------------------------------------------------------------| 
G|---------------------------------------------------------------------------| 
D|---------------------------------------------------------------------------| 
A|---------------------------------------------------------------------------| 
E|---------------------------------------------------------------------------| 

E|-------0-2-0---0-4-4-4-2---2-2-2-0---2-0-2-0-2-4-2-0---------7-4-4-4-2-2-2-| 
B|-2-0-2-----------------------------------------------2-0-------------------| 
G|---------------------------------------------------------1-----------------| 
D|---------------------------------------------------------------------------| 
A|---------------------------------------------------------------------------| 
E|---------------------------------------------------------------------------| 

E|-4-2-0-------0-5-4---2-4-2---0-2-------0-5-4---2---------------------------| 
B|---------2-2---------------------2---2-----------2-------------------------| 
G|---------------------------------------------------------------------------| 
D|---------------------------------------------------------------------------| 
A|---------------------------------------------------------------------------| 
E|---------------------------------------------------------------------------| 

E|-------0-2-0---0-4-4-4-2---2-2-2-0---2-0-2-0-2-4-2-0---------7-4-4-4-2-2-2-| 
B|-2-0-2-----------------------------------------------2-0-------------------| 
G|---------------------------------------------------------1-----------------| 
D|---------------------------------------------------------------------------| 
A|---------------------------------------------------------------------------| 
E|---------------------------------------------------------------------------| 

E|-4-2-0---------------------------------------------------------------------| 
B|---------------------------------------------------------------------------| 
G|---------------------------------------------------------------------------| 
D|---------------------------------------------------------------------------| 
A|---------------------------------------------------------------------------| 
E|---------------------------------------------------------------------------| 

E|-------0-2-0---0-4-4-4-2---2-2-2-0---2-0-2-0-2-4-2-0---------7-4-4-4-2-2-2-| 
B|-2-0-2-----------------------------------------------2-0-------------------| 
G|---------------------------------------------------------1-----------------| 
D|---------------------------------------------------------------------------| 
A|---------------------------------------------------------------------------| 
E|---------------------------------------------------------------------------| 

E|-4-2-0-------0-5-4---7-----4-----------------------------------------------| 
B|---------2-2-----------7---------------------------------------------------| 
G|-----------------------------6---------------------------------------------| 
D|---------------------------------------------------------------------------| 
A|---------------------------------------------------------------------------| 
E|---------------------------------------------------------------------------| 

E|-------5-4---7-----4-----------5-4-----------------------------------------| 
B|-----5---------7-------------5---------------------------------------------| 
G|-6-6-----------------6---6-6-----------------------------------------------| 
D|---------------------------------------------------------------------------| 
A|---------------------------------------------------------------------------| 
E|---------------------------------------------------------------------------| 

E|-----0-5-4-----------------------------------------------------------------| 
B|-2-2-----------------------------------------------------------------------| 
G|---------------------------------------------------------------------------| 
D|---------------------------------------------------------------------------| 
A|---------------------------------------------------------------------------| 
E|---------------------------------------------------------------------------| 
 
share this page

See Also: