E-Chords
Brian Jonestown Massacre

Food For Clouds(Tabs)

Brian Jonestown Massacre

roll up this ad to continue

Main chord riff that plays throughout the song. 

e|----5----5----6----8-----5----5----6----1----------------------------------| 
B|----6----5----6----8-----6----5----6----1----------------------------------| 
G|----7----5----7----9-----7----5----7----2----------------------------------| 
D|----7----7----8----10----7----7----8----3----------------------------------| 
A|----5----7----8----10----5----7----8----3----------------------------------| 
E|---------5----6----8----------5----6----1----------------------------------| 

Then, another guitar comes in with something like this. And it repeats. 

e|---------------------------------------------------------------------------| 
B|---------------------------------------------------------------------------| 
G|-----7-5-------------------------------------------------------------------| 
D|---------7-5h7h5-3---------------------------------------------------------| 
A|-------------------5--5-5-5h3h5--55-3--------------------------------------| 
E|---------------------------------------------------------------------------| 

Here is the main riff of the song. 

e|---------------------------------------------------------------------------| 
B|-----10-10-6-66-8-8-11h10h11---10-10-6-66-8-8-3-1-1h3----------------------| 
G|---------------------------------------------------------------------------| 
D|---------------------------------------------------------------------------| 
A|---------------------------------------------------------------------------| 
E|---------------------------------------------------------------------------| 

That's pretty much it as far as I'm concerned. 


************************************ 

| /   slide up 
| \   slide down 
| h   hammer-on 
| p   pull-off 
| ~   vibrato 
| +   harmonic 
| x   Mute note 
| b   Bend 
| pb  Pre-bend 
| br  Bend release 
| pbr Pre-bend release 
| brb Bend release bend 

************************************ 
share this page

See Also: