E-Chords
Brian Jonestown Massacre

Crushed(Tabs)

Brian Jonestown Massacre

roll up this ad to continue

Key: F#
Pretty much the entirety of the lead guitar in this song. 

E|---------------------------------------------------------------------------------| 
B|---------------------------------------------------------------------------------| 
G|--11--9--------------------------------------------------------------------------| 
D|---------11--9--9--9--9--11--------11--9--9--9--9--11--------11--9--9--9--9--11--| 
A|-----------------------------9--9----------------------9--9----------------------| 
E|---------------------------------------------------------------------------------| 


E|---------------------------------------------------------------------------------| 
B|---------------------------------------------------------------------------------| 
G|----------------------------11--9------------------------------------------------| 
D|--------11--9--9--9--9--11---------11--9--9--9--9--11--------11--9--9--9--9--11--| 
A|--9--9-------------------------------------------------9--9----------------------| 
E|---------------------------------------------------------------------------------| 

The power chords for the song are: 

F#5 
E5 
C#5 
B5 
F#5 
 
share this page

See Also: