E-Chords
Brian Jones

Backstreet Girl(Tabs)

Brian Jones

 Brian Jones' organ part tabbed for guitar 



                                           I don't want you to be high 
e|---15-17-19----14----------14-15--------19-----------17-19-17----------------------| 
B|------------15----17-15-17-------15----------------------------20-15---------------| 
G|-----------------------------------------------------------------------------------| 
D|-----------------------------------------------------------------------------------| 
A|-----------------------------------------------------------------------------------| 
E|-----------------------------------------------------------------------------------| 
   I don't want you to to be down         Don't want to tell you no lie 
e|-14-12---------12-------14--15----------19------------17-19-17---------------------| 
B|---------15--------------------15---------------------------------20-15------------| 
G|-----------------------------------------------------------------------------------| 
D|-----------------------------------------------------------------------------------| 
A|-----------------------------------------------------------------------------------| 
E|-----------------------------------------------------------------------------------| 
   Just want you to be around              Please come right up to my ears 
e|-14---12-------12-14--15-17-19-20-19-----20----------------19-------17-------------| 
B|-----------15----------------------------------------------------------20-19-17-15-| 
G|-----------------------------------------------------------------------------------| 
D|-----------------------------------------------------------------------------------| 
A|-----------------------------------------------------------------------------------| 
E|-----------------------------------------------------------------------------------| 
   You will be able to hear what I say 
e|-14----------13------19---19-----22--20-19-17--------------------------------------| 
B|-----------------------------------------------------------------------------------| 
G|-----------------------------------------------------------------------------------| 
D|-----------------------------------------------------------------------------------| 
A|-----------------------------------------------------------------------------------| 
E|-----------------------------------------------------------------------------------| 

  Repeat for other verses 

roll up this ad to continue

share this page

See Also: