E-Chords
Bret Michaels

Go That Far(Tabs)

Bret Michaels

(intro) 

E|--------------------------------------| 
B|--------------------------------------| 
G|--------------------------------------| 
D|-----2-4-2-4-4-4-4-----2-4------------| 
A|-2-4-0-2-0-2-2-2-2-2-4-0-2------------| 
E|-0-2---------------0-2----------------| 

E|--------------------------------------| 
B|--------------------------------------| 
G|--------------------------------------| 
D|--4^6-2 4^6-2-4-----------------------| 
A|--------------------------------------| 
E|--------------------------------------| 

roll up this ad to continue

share this page

See Also: