E-Chords
Brainstorm

Maza Bilzu Ramiti(Tabs)

Brainstorm

Key: D
Note: Most likely the Chorus is played differently by the band, but the chords 
are correct and it sounds pretty good.  

Tuning: Standard (EADGBe) 

Intro, Verse and Bridge 
|------------------------------------| 
|-----10-----10-----8-----8-----8h10-| 
|---9----9------9-----9-----9--------| 
|-9--------9------9-----9-----9------| 
|------------------------------------| 
|------------------------------------| 

|------------------------------------| 
|-----10-----10-----8-----8-----8h10-| 
|---9----9------9-----9-----9--------| 
|-9--------9------9-----9-----9------| 
|------------------------------------| 
|------------------------------------| 

|------10------10------8------8------8h10-| 
|-----------------------------------------| 
|----9----9-------9------9------9---------| 
|-10--------10------10-----10-----10------| 
|-----------------------------------------| 
|-----------------------------------------| 

|------10------10------8------8------8h10-| 
|-----------------------------------------| 
|----9----9-------9------9------9---------| 
|-10--------10------10-----10-----10------| 
|-----------------------------------------| 
|-----------------------------------------| 

Chorus 

 D                 G 
|-------2-2h3p2---|-------3-------3-| 
|-----3---------3-|-----3-------3---| 
|---2-------------|---0-------0-----| 
|-0---------------|-----------------| 
|-----------------|-----------------| 
|-----------------|-3-------3-------| 

 C                 Am 
|-------0-------0-|-------0-0-------| 
|-----1-------1---|-----1-----1---1-| 
|---0-------0-----|---2---------2---| 
|-----------------|-----------------| 
|-3-------3-------|-0---------------| 
|-----------------|-----------------| 

 D                 G 
|-------2-2h3p2---|-------3-------3-| 
|-----3---------3-|-----3-------3---| 
|---2-------------|---0-------0-----| 
|-0---------------|-----------------| 
|-----------------|-----------------| 
|-----------------|-3-------3-------| 

 C                 Am 
|-------0-------0-|-------0-0-------| 
|-----1-------1---|-----1-----1---1-| 
|---0-------0-----|---2---------2---| 
|-----------------|-----------------| 
|-3-------3-------|-0---------------| 
|-----------------|-----------------| 

 C                 Am 
|-------0-------0-|-------0-0-------| 
|-----1-------1---|-----1-----1---1-| 
|---0-------0-----|---2---------2---| 
|-----------------|-----------------| 
|-3-------3-------|-0---------------| 
|-----------------|-----------------| 

 C                 Am 
|-------0-------0-|-------0-0-------| 
|-----1-------1---|-----1-----1---1-| 
|---0-------0-----|---2---------2---| 
|-----------------|-----------------| 
|-3-------3-------|-0---------------| 
|-----------------|-----------------| 


************************************ 

| /   slide up 
| \   slide down 
| h   hammer-on 
| p   pull-off 
| ~   vibrato 
| +   harmonic 
| x   Mute note 
| b   Bend 
| pb  Pre-bend 
| br  Bend release 
| pbr Pre-bend release 
| brb Bend release bend 

************************************ 

roll up this ad to continue

share this page

See Also: