E-Chords
Born Of Osiris

Automatic Motion(Tabs)

Born Of Osiris

roll up this ad to continue

Riff A 

D|-----|--------------------------------------| 
A|-----|--------------------------------------| 
F|---14|-------------10/12--10-12--10-12-12-14| 
C|-----|8-10-8-10-8---------------------------| 
G|-----|--------------------------------------|X2 
D|-----|--------------------------------------| 
G|-----|--------------------------------------| 

D|-----------------------------------------| 
A|-----------------------------------------| 
F|----------------10/12--10-12--10-12-12-14| 
C|10-12-12-10-12---------------------------| 
G|-----------------------------------------|X2 
D|-----------------------------------------| 
G|-----------------------------------------| 



Riff B 

D|------------------------------|--------------------------------| 
A|------------------------------|--------------------------------| 
F|------------------------------|--------------------------------| 
C|------------------------------|--------------------------------| 
G|5-5-5-5-----5-5---5-5--5--5-5-|8-8-8-8-----8-8---8-8---8-8-8---| 
D|5-5-5-5-----5-5---5-5--5--5-5-|8-8-8-8-----8-8---8-8---8-8-8---| 
G|5-5-5-5-----5-5---5-5--5--5-5-|8-8-8-8-----8-8---8-8---8-8-8---| 
 


D|-------------------------------------------| 
A|-------------------------------------------| 
F|-------------------------------------------| 
C|-------------------------------------------| 
G|13-13-13-13-----13-13---13-13--13--13-13---| 
D|13-13-13-13-----13-13---13-13--13--13-13---| 
G|13-13-13-13-----13-13---13-13--13--13-13---| 
 

D|-------------------------------------------| 
A|-------------------------------------------| 
F|-------------------------------------------| 
C|-------------------------------------------| 
G|-------------------------------------------| 
D|12-12-12-12-----12-12---12-12--12--12-12---| 
G|13-13-13-13-----13-13---13-13--13--13-13---| 




Riff C 

lead alone 
D|---------------------------------------------------| 
A|------------------------------17-19-20-19-17-------| 
F|---------------------16-17-19----------------19----| 
C|------------15-17-19-------------------------------| 
G|15-15-15-19----------------------------------------| 
D|---------------------------------------------------| 
G|---------------------------------------------------| 
 


with both guitars 
D|---------------------------------------------------| 
A|------------------------------17-19-20-19-17-------| 
F|---------------------16-17-19----------------19----| 
C|------------15-17-19-------------------------------| 
G|15-15-15-19----------------------------------------| 
D|---------------------------------------------------| 
G|---------------------------------------------------| 
 

D|------------------------------------------| 
A|------------------------------17-19-------| 
F|---------------------16-17-19-------------| 
C|------------15-17-19----------------14----| 
G|15-15-15-19-------------------------------| 
D|------------------------------------------| 
G|------------------------------------------| 

D|---------------------------------------------------| 
A|------------------------------17-19-20-19-17-------| 
F|---------------------16-17-19----------------19----| 
C|------------15-17-19-------------------------------| 
G|15-15-15-19----------------------------------------| 
D|---------------------------------------------------| 
G|---------------------------------------------------| 
 

D|------------------------------------------| 
A|------------------------------17-19-20----| 
F|---------------------16-17-19-------------| 
C|------------15-17-19----------------------| 
G|15-15-15-19-------------------------------| 
D|------------------------------------------| 
G|------------------------------------------| 
 

D|---------------------------------------------------| 
A|------------------------------17-19-20-19-17-------| 
F|---------------------16-17-19----------------19----| 
C|------------15-17-19-------------------------------| 
G|15-15-15-19----------------------------------------| 
D|---------------------------------------------------| 
G|---------------------------------------------------| 
 

D|-----------------------------------------17-19---| 
A|---------------------------------17-19-20--------| 
F|------------------------16-17-19-----------------| 
C|---------------15-17-19--------------------------| 
G|15-15-15-15-19-----------------------------------| 
D|-------------------------------------------------| 
G|-------------------------------------------------| 
 

D|20-19-17--------------------------------17-19-| 
A|---------20-19-17-----------------15-17-------| 
F|------------------19-17---14-16---------------| 
C|------------------------0-------0-------------| 
G|----------------------------------------------| 
D|----------------------------------------------| 
G|----------------------------------------------| 
                          PM      PM 

D|20-19-17--------------------------------15-19-| 
A|---------20-19-17-----------------15-17-------| 
F|------------------19-17---14-16---------------| 
C|------------------------0-------0-------------| 
G|----------------------------------------------| 
D|----------------------------------------------| 
G|----------------------------------------------| 
                          PM      PM 


D|------------------------------------------|------------------------------------------| 
A|------------------------------------------|------------------------------------------| 
F|------------------------------------------|------------------------------------------| 
C|------------------------------------------|------------------------------------------| 
G|13-13-13-13-----13-13---13-13---13-13-13--|13-13-13-13-----13-13---13-13--13--13-13--|X2 
D|13-13-13-13-----13-13---13-13---13-13-13--|13-13-13-13-----13-13---13-13--13--13-13--| 
G|13-13-13-13-----13-13---13-13---13-13-13--|13-13-13-13-----13-13---13-13--13--13-13--| 
 

D|-------------------------------------------| 
A|-------------------------------------------| 
F|-------------------------------------------| 
C|-------------------------------------------| 
G|13-13-13-13-----13-13---13-13---13-13-13---|X2 
D|13-13-13-13-----13-13---13-13---13-13-13---| 
G|13-13-13-13-----13-13---13-13---13-13-13---| 
 

D|-------------------------------------------| 
A|-------------------------------------------| 
F|-------------------------------------------| 
C|-------------------------------------------| 
G|13-13-13-13-----13-13---13-13--13--13-13---| 
D|13-13-13-13-----13-13---13-13--13--13-13---| 
G|13-13-13-13-----13-13---13-13--13--13-13---| 
 


Riff D 

D|---------------------------------| 
A|---------------------------------| 
F|---------------------------------| 
C|---------------------------------| 
G|1-1-1-1-----1-1-1-1-----1--1-1---|X2 
D|1-1-1-1-----1-1-1-1-----1--1-1---| 
G|1-1-1-1-----1-1-1-1-----1--1-1---| 
 

D|-------------------------------------------------------------| 
A|-------------------------------------------------------------| 
F|-------------------------------------------------------------| 
C|-------------------------------------------------------------| 
G|1-1-1-1-----1-1-1-1-----1--1-1-1-1----1-1-1-1--1-1--1--1-1---|X4 
D|1-1-1-1-----1-1-1-1-----1--1-1-1-1----1-1-1-1--1-1--1--1-1---| 
G|1-1-1-1-----1-1-1-1-----1--1-1-1-1----1-1-1-1--1-1--1--1-1---| 
 


Riff E (you can figure the rythm out) 

D|----------------16-------------------------|--------------------------16--------20------| 
A|/18---14-----------------------------------|----------------18---14--------18-----------| 
F|-----------14------------------------------|--------------------------------------------| 
C|---------------------15--\10--/11--\7------|/11---10--/15-------------------------------| 
G|-------------------------------------------|--------------------------------------------| 
D|-------------------------------------------|--------------------------------------------| 
G|-------------------------------------------|--------------------------------------------| 
 
share this page

See Also: