E-Chords
Bobby Rydell

Wild One(Tabs)

Bobby Rydell

Key: E
 Intro: 
 
 B5C5                G5              B5C5                G5 
 
  Gtr I (Clean El. Gtr.) 
  E E E E E E E E   E E E E E E E E   E E E E E E E E   E E E E E E E E 
|-----------------|-----------------|-----------------|------------------|| 
|-----------------|-----------------|-----------------|------------------|| 
|-----------------|-----------------|-----------------|------------------|| 
|-4s5-5-5-7-5-7-5-|-----------------|-4s5-5-5-7-5-7-5-|------------------|| 
|-2s3-3-3-3-3-3-3-|---5-5-5-5-5-5-5-|-2s3-3-3-3-3-3-3-|---5-5-5-5-5-5-5--|| 
|-----------------|---3-3-3-3-3-3-3-|-----------------|---3-3-3-3-3-3-3--|| 


   1st & 2nd Verses 
    C5                                  G5 
    E E E E E E E E   E E E E E E E E   E E E E E E E E   E E E E E E E E 
||------------------|-----------------|-----------------|------------------| 
||o-----------------|-----------------|-----------------|------------------| 
||------------------|-----------------|-----------------|------------------| 
||--5-5-7-7-5-5-7-7-|-5-5-7-7-5-5-7-7-|-----------------|------------------| 
||o-3-3-3-3-3-3-3-3-|-3-3-3-3-3-3-3-3-|-5-5-7-7-5-5-7-7-|-5-5-7-7-5-5-7-7--| 
||------------------|-----------------|-3-3-3-3-3-3-3-3-|-3-3-3-3-3-3-3-3--| 


                                      C5                E5 
  E E E E E E E E   E E E E E E E E   E E E E E E E E   E E E E E E E E 
|-----------------|-----------------|-----------------|-----------------| 
|-----------------|-----------------|-----------------|-----------------| 
|-----------------|-----------------|-----------------|-----------------| 
|-----------------|-----------------|-5-5-7-7-5-5-7-7-|-----------------| 
|-5-5-7-7-5-5-7-7-|-5-5-7-7-5-5-7-7-|-3-3-3-3-3-3-3-3-|-2-2-4-4-2-2-4-4-| 
|-3-3-3-3-3-3-3-3-|-3-3-3-3-3-3-3-3-|-----------------|-0-0-0-0-0-0-0-0-| 


                                     1. 
  A5                                  D5 
  E E E E E E E E   E E E E E E E E   E E E E E E E E   E E E E E E E E 
|-----------------|-----------------|-----------------|-----------------| 
|-----------------|-----------------|-----------------|-----------------| 
|-----------------|-----------------|-----------------|-----------------| 
|-----------------|-----------------|-7-7-9-9-7-7-9-9-|-7-7-9-9-7-7-9-9-| 
|-7-7-9-9-7-7-9-9-|-7-7-9-9-7-7-9-9-|-5-5-5-5-5-5-5-5-|-5-5-5-5-5-5-5-5-| 
|-5-5-5-5-5-5-5-5-|-5-5-5-5-5-5-5-5-|-----------------|-----------------| 


  E E E E E E E E   E E E E E E E E   q  Q  q  E E   q  q  q  q 
|-----------------|-----------------|--------------|--------------|| 
|-----------------|-----------------|--------------|-------------o|| 
|-----------------|-----------------|--------------|--------------|| 
|-7-7-9-9-7-7-9-9-|-7-7-9-9-7-7-9-9-|--------------|--------------|| 
|-5-5-5-5-5-5-5-5-|-5-5-5-5-5-5-5-5-|-5-----5----5-|-5--5--5--5--o|| 
|-----------------|-----------------|-3-----3----3-|-3--3--3--3---|| 


  2. 
  D5                                  C5 
  E E E E E E E E   E E E E E E E E   E E E E E E E E 
|-----------------|-----------------|-----------------| 
|-----------------|-----------------|-----------------| 
|-----------------|-----------------|-----------------| 
|-7-7-9-9-7-7-9-9-|-7-7-9-9-7-7-9-9-|-5-5-7-7-5-5-7-7-| 
|-5-5-5-5-5-5-5-5-|-5-5-5-5-5-5-5-5-|-3-3-3-3-3-3-3-3-| 
|-----------------|-----------------|-----------------| 


  G5                B5C5                G5 
  E E E E E E E E   E E E E E E E E   E E E E E E E E 
|-----------------|-----------------|-----------------|| 
|-----------------|-----------------|-----------------|| 
|-----------------|-----------------|-----------------|| 
|-----------------|-4s5-5-5-7-5-7-5-|-----------------|| 
|-5-5-7-7-5-5-7-7-|-2s3-3-3-3-3-3-3-|---5-5-5-5-5-5-5-|| 
|-3-3-3-3-3-3-3-3-|-----------------|---3-3-3-3-3-3-3-|| 


 3rd Verse 
  C5                                  G5 
  E E E E E E E E   E E E E E E E E   E E E E E E E E   E E E E E E E E 
|-----------------|-----------------|-----------------|-----------------| 
|-----------------|-----------------|-----------------|-----------------| 
|-----------------|-----------------|-----------------|-----------------| 
|-5-5-7-7-5-5-7-7-|-5-5-7-7-5-5-7-7-|-----------------|-----------------| 
|-3-3-3-3-3-3-3-3-|-3-3-3-3-3-3-3-3-|-5-5-7-7-5-5-7-7-|-5-5-7-7-5-5-7-7-| 
|-----------------|-----------------|-3-3-3-3-3-3-3-3-|-3-3-3-3-3-3-3-3-| 


                                      C5                E5 C5 B5 Bb5 
  E E E E E E E E   E E E E E E E E   E E E E E E E E   q  Q  Q  Q 
|-----------------|-----------------|-----------------|-------------| 
|-----------------|-----------------|-----------------|-------------| 
|-----------------|-----------------|-----------------|-------------| 
|-----------------|-----------------|-5-5-7-7-5-5-7-7-|----5--4--3--| 
|-5-5-7-7-5-5-7-7-|-5-5-7-7-5-5-7-7-|-3-3-3-3-3-3-3-3-|-2--3--2--1--| 
|-3-3-3-3-3-3-3-3-|-3-3-3-3-3-3-3-3-|-----------------|-0-----------| 


  A5                                  D5 
  E E E E E E E E   E E E E E E E E   E E E E E E E E   E E E E E E E E 
|-----------------|-----------------|-----------------|-----------------| 
|-----------------|-----------------|-----------------|-----------------| 
|-----------------|-----------------|-----------------|-----------------| 
|-----------------|-----------------|-7-7-9-9-7-7-9-9-|-7-7-9-9-7-7-9-9-| 
|-7-7-9-9-7-7-9-9-|-7-7-9-9-7-7-9-9-|-5-5-5-5-5-5-5-5-|-5-5-5-5-5-5-5-5-| 
|-5-5-5-5-5-5-5-5-|-5-5-5-5-5-5-5-5-|-----------------|-----------------| 


                                      G5             Ab5 
  E E E E E E E E   E E E E E E E E   q  Q  q  E E   q  q  q  q 
|-----------------|-----------------|--------------|-------------|| 
|-----------------|-----------------|--------------|-------------|| 
|-----------------|-----------------|--------------|-------------|| 
|-7-7-9-9-7-7-9-9-|-7-7-9-9-7-7-9-9-|--------------|-------------|| 
|-5-5-5-5-5-5-5-5-|-5-5-5-5-5-5-5-5-|-5-----5----5-|-6--6--6--6--|| 
|-----------------|-----------------|-3-----3----3-|-4--4--4--4--|| 


 4th Verse 
  Db5                                 Ab5 
  E E E E E E E E   E E E E E E E E   E E E E E E E E   E E E E E E E E 
|-----------------|-----------------|-----------------|-----------------| 
|-----------------|-----------------|-----------------|-----------------| 
|-----------------|-----------------|-----------------|-----------------| 
|-6-6-8-8-6-6-8-8-|-6-6-8-8-6-6-8-8-|-----------------|-----------------| 
|-4-4-4-4-4-4-4-4-|-4-4-4-4-4-4-4-4-|-6-6-8-8-6-6-8-8-|-6-6-8-8-6-6-8-8-| 
|-----------------|-----------------|-4-4-4-4-4-4-4-4-|-4-4-4-4-4-4-4-4-| 


                                      Db5               F5 
  E E E E E E E E   E E E E E E E E   E E E E E E E E   E E E E E E E E 
|-----------------|-----------------|-----------------|-----------------| 
|-----------------|-----------------|-----------------|-----------------| 
|-----------------|-----------------|-----------------|-----------------| 
|-----------------|-----------------|-6-6-8-8-6-6-8-8-|-----------------| 
|-6-6-8-8-6-6-8-8-|-6-6-8-8-6-6-8-8-|-4-4-4-4-4-4-4-4-|-3-3-5-5-3-3-5-5-| 
|-4-4-4-4-4-4-4-4-|-4-4-4-4-4-4-4-4-|-----------------|-1-1-1-1-1-1-1-1-| 


  Bb5 
  E E  E  E E E  E  E   E E  E  E E E  E  E 
|---------------------|---------------------| 
|---------------------|---------------------| 
|---------------------|---------------------| 
|---------------------|---------------------| 
|-8-8-10-10-8-8-10-10-|-8-8-10-10-8-8-10-10-| 
|-6-6--6--6-6-6--6--6-|-6-6--6--6-6-6--6--6-| 


  Eb5 
  E E  E  E E E  E  E   E E  E  E E E  E  E 
|---------------------|---------------------| 
|---------------------|---------------------| 
|---------------------|---------------------| 
|-8-8-10-10-8-8-10-10-|-8-8-10-10-8-8-10-10-| 
|-6-6--6--6-6-6--6--6-|-6-6--6--6-6-6--6--6-| 
|---------------------|---------------------| 


  Db5               Ab5               C5Db5                   C5 B5 
  E E E E E E E E   E E E E E E E E   E E E E E E E E   q  Q  Q  Q 
|-----------------|-----------------|-----------------|-------------|| 
|-----------------|-----------------|-----------------|-------------|| 
|-----------------|-----------------|-----------------|-------------|| 
|-6-6-8-8-6-6-8-8-|-----------------|-5s6-6-6-8-6-8-6-|-6--6--5--4--|| 
|-4-4-4-4-4-4-4-4-|-6-6-8-8-6-6-8-8-|-3s4-4-4-4-4-4-4-|-4--4--3--2--|| 
|-----------------|-4-4-4-4-4-4-4-4-|-----------------|-------------|| 


   Out-Chorus 
    Bb5 
    E E  E  E E E  E  E   E E  E  E E E  E  E 
||----------------------|---------------------| 
||o---------------------|---------------------| 
||----------------------|---------------------| 
||----------------------|---------------------| 
||o-8-8-10-10-8-8-10-10-|-8-8-10-10-8-8-10-10-| 
||--6-6--6--6-6-6--6--6-|-6-6--6--6-6-6--6--6-| 


  Eb5 
  E E  E  E E E  E  E   E E  E  E E E  E  E 
|---------------------|----------------------| 
|---------------------|----------------------| 
|---------------------|----------------------| 
|-8-8-10-10-8-8-10-10-|-8-8-10-10-8-8-10-10--| 
|-6-6--6--6-6-6--6--6-|-6-6--6--6-6-6--6--6--| 
|---------------------|----------------------| 


                                1. 
  Db5               Ab5          C5Db5 
  E E E E E E E E   q  Q  H      E E E E E E E E   q  Q  Q  Q 
|-----------------|------------|-----------------|--------------|| 
|-----------------|------------|-----------------|-------------o|| 
|-----------------|------------|-----------------|--------------|| 
|-6-6-8-8-6-6-8-8-|------------|-5s6-6-6-8-6-8-6-|-6--6--5--4---|| 
|-4-4-4-4-4-4-4-4-|-6----------|-3s4-4-4-4-4-4-4-|-4--4--3--2--o|| 
|-----------------|-4----------|-----------------|--------------|| 


  2. 
  Db5               Ab5               C5Db5               Ab5 Db5 
  E E E E E E E E   E E E E E E E E   E E E E E E E E   E E E E H 
|-----------------|-----------------|-----------------|--------------*| 
|-----------------|-----------------|-----------------|--------------*| 
|-----------------|-----------------|-----------------|--------------*| 
|-6-6-8-8-6-6-8-8-|-----------------|-5s6-6-6-8-6-8-6-|-------6------*| 
|-4-4-4-4-4-4-4-4-|-6-6-8-8-6-6-8-8-|-3s4-4-4-4-4-4-4-|---6-6-4------*| 
|-----------------|-4-4-4-4-4-4-4-4-|-----------------|---4-4--------*|  

roll up this ad to continue

share this page

See Also: