E-Chords
Blue Shade Witness

Distance Pains(Tabs)

Blue Shade Witness

Album: First Impression 
Transcribed by: Joel Bennett 
Email: [email protected] 
 
Awesome song by an awesome new Christian band! 
 
--1-----------1------0-------------------------------------------------------- 
--3-----------1------1-------------------------------------------------------- 
--2-----------2------0-------------------------------------------------------- 
--0-----------3------2-------------------------------------------------------- 
---------------------3-------------------------------------------------------- 
------------------------------------------------------------------------------ 
 Sometimes I just...Want to be held by you                                     
 
--1-----------1------0-------------------------------------------------------- 
--3-----------1------1-------------------------------------------------------- 
--2-----------2------0-------------------------------------------------------- 
--0-----------3------2-------------------------------------------------------- 
---------------------3-------------------------------------------------------- 
------------------------------------------------------------------------------ 
 I suppose I feel...Somewhat of a love for you                                 
 
------------------------------------------------------------------------------ 
------------------------------------------------------------------------------ 
------------------------------------------------------------------------------ 
--------8\3-----5---------------8\3-------5----------------------------------- 
--------8\3-----5---------------8\3-------5----------------------------------- 
--------6\1-----3---------------6\1-------3----------------------------------- 
 And I want to know you...And I want to hold your hand                         
 
----1-----1-------------------0-------------1------1------------------0------- 
----3-----1-------------------1-------------3------1------------------1------- 
----2-----2-------------------0-------------2------2------------------0------- 
----0-----3-------------------2-------------0------3------------------2------- 
------------------------------3---------------------------------------3------- 
------------------------------------------------------------------------------ 
 My father, you know what is best...And you promiced you'll hear my prayers    
 
------------------------------------------------------------------------------ 
------------------------------------------------------------------------------ 
------------------------------------------------------------------------------ 
------------8/15----17-----------------8/15--17----------------13------------- 
------------8/15----17-----------------8/15--17----------------13------------- 
------------6/13----15-----------------6/13--15----------------11------------- 
 And will I wait forever?  And will my God emerge?  I know he will.            
 
------------------------------------------------------------------------------ 
------------------------------------------------------------------------------ 
------------------------------------------------------------------------------ 
----------------11-------------13----------11--------------------------------- 
----------------11-------------13----------11--------------------------------- 
----------------9--------------11----------9---------------------------------- 
 I know he'll answer.  Let my flesh burn away. (repeat all, solo, repeat.)     
 
 

roll up this ad to continue

share this page

See Also: