E-Chords
Blof

Spijt Heb Je Morgen Maar(Tabs)

Blof

Key: A
BLF - Spijt Heb Je Morgen Maar (single) 

----------------------------------------- 

Riff: 
 E-|---------|---------| 
 B-|---------|---------| 
 G-|---------|-----5---| 
 D-|-----5---|---------| 3x 
 A-|-3-3---3-|-3-3---3-| 
 E-|---------|---------| 


 E-|---------|---------| 
 B-|---------|---------| 
 G-|---4-4-4-|-4-4-4-4-| 
 D-|---------|---------|  
 A-|-3-------|---------| 
 E-|---------|---------| 

-------------------------------- 

Intro: 
 Riff 2x 

Couplet: 
 Riff 4x 

Pre-Chorus 
 |---------| 
 | A5 | A5 | 
 |---------| 
 | C5 | C5 | 
 |---------| 
 | A5 |Bb5 | 
 |---------| 
 | C5 | C5 | 
 |---------| 


Couplet: 
 Riff 4x 


Pre-Chorus 
 |---------| 
 | A5 | A5 | 
 |---------| 
 | C5 | C5 | 
 |---------| 
 | A5 |Bb5 | 
 |---------| 
 | C5 | C5 | 
 |---------| 

Chorus: 
 |---------| 
 | C5 | C5 | 
 |---------| 
 | D5 | D5 | 
 |---------| 
 | A5 |Bb5 | 
 |---------| 
 | C5 | C5 | 
 |---------| 

Bridge: 
 Riff 2x 

Couplet: 
 Riff 2x 

Pre-Chorus 
 |---------| 
 | C5 | C5 | 
 |---------| 
 | F5 | F5 | 
 |---------| 
 | A5 |Bb5 | 
 |---------| 

Chorus: 
 |---------| 
 | C5 | C5 | 
 |---------| 
 | D5 | D5 | 
 |---------| 2x 
 | A5 |Bb5 | 
 |---------| 
 | C5 | C5 | 
 |---------| 

 |---------| 
 | C5 | -  | 
 |---------| 

roll up this ad to continue

share this page

See Also: