E-Chords
Blackbear

Weak When U Around(Tabs)

Blackbear

E|---------------------------------------------------------------------------| 
B|---7--------12---12----6--------11---11------------------------------------| 
G|---8--------13---13----6--------11---11------------------------------------| 
D|---8--------13---13----6--------11---11------------------------------------|   2x 
A|-6---6--6/11---11----4---4--4/9----9---------------------------------------| 
E|---------------------------------------------------------------------------| 


E|---------------------------------------------------------------------------| 
B|----4--4--4--4--4-----3--3--3--3--3----------------------------------------| 
G|----4--4--4--4--4-----3--3--3--3--3----------------------------------------| 
D|----4--4--4--4--4-----3--3--3--3--3----------------------------------------| 
A|-2---2--2--2--2----1---1--1--1--1------------------------------------------| 
E|---------------------------------------------------------------------------| 

roll up this ad to continue

share this page

See Also: