E-Chords
Blackbear

The Lobby(Tabs)

Blackbear

e|----------------------------------------------------------------------------------------------------| 
B|----------------------------------------------------------------------------------------------------| 
G|-----2-----2-----2-----2-----2-----2-----2-----2-----2-----2-----2-----2-----2-----2-----2-----2----| 
D|--4-----4-----4-----4-----4-----4-----4-----4-----4-----4-----4-----4-----4-----4-----4-----4-------| 
A|----------------------------------------------------------------------------------------------------| 
E|----------------------------------------------------------------------------------------------------| 

e|----------------------------------------------------------------------------------------------------| 
B|----------------------------------------------------------------------------------------------------| 
G|-----1-----1-----1-----1-----1-----1-----1-----1----------------------------------------------------| 
D|------------------------------------------------------0-----0-----0-----0-----0-----0-----0-----0---| 
A|--0-----0-----0-----0-----0-----0-----0-----0------2-----2-----2-----2-----2-----2-----2-----2------| 
E|----------------------------------------------------------------------------------------------------| 

e|----------------------------------------------------------------------------------------------------| 
B|----------------------------------------------------------------------------------------------------| 
G|----------------------------------------------------------------------------------------------------| 
D|-----2-----2-----2-----2-----4-----4-----4-----4-----4----------------0-----4-----4-----4-----4-----| 
A|--4-----4-----4-----4-----5-----5-----5-----5-----5-----5----------4-----6-----6-----4-----4--------| 
E|----------------------------------------------------------------------------------------------------| 

e|----------------------------------------------------------------------------| 
B|----------------------------------------------------------------------------| 
G|----------------------------------------------------------------------------| 
D|-----4-----4-----4-----4-----4-----4-----4-----4-----4-----4-----4-----4----| 
A|--------------------------6-----6-----4-----4-------------------------------| 
E|--6-----6-----7-----7-----------------------------6-----6-----7-----7-------| 

The notes on the E string can also be played on the A string as 1 1 2 2 instead of 6 6 7 7 

e|--------------2--1-------------------2--1-------------------| 
B|--------2--4--------2--4-------------------2--4-------------| 
G|--1--3--------------------1--3--1----------------1--3--1----| 
D|------------------------------------------------------------| 
A|------------------------------------------------------------| 
E|------------------------------------------------------------| 

roll up this ad to continue

share this page

See Also: