E-Chords
Black Lips

New Direction(Tabs)

Black Lips

roll up this ad to continue

Guitar 1 (Ian St. Pe) 

Verse 

e---------------------------------------------| 
B---------------------------------------------| 
G--6-6-6-6-6--4-4-4-4-4--6-6-6-6-6------------| 
D--6-6-6-6-6--4-4-4-4-4--6-6-6-6-6--4-4-4-4-4-| 
A--4-4-4-4-4--2-2-2-2-2--4-4-4-4-4--4-4-4-4-4-| 
E-----------------------------------2-2-2-2-2-| 

e-------------------------------------------| 
B-------------------------------------------| 
G--6-6-6-6-6----------------6-6-6-6-6-6-6-6-| 
D--6-6-6-6-6--6-6-6--4-4-4--6-6-6-6-6-6-6-6-| 
A--4-4-4-4-4--6-6-6--4-4-4--4-4-4-4-4-4-4-4-| 
E-------------4-4-4--2-2-2------------------| 

Chorus 

e-----4-----4------9------9-----4-----4------9------9-| 
B--4h6---4h6---9h11---9h11---4h6---4h6---9h11---9h11--| 
G-----------------------------------------------------| 
D-----------------------------------------------------| 
A-----------------------------------------------------| 
E-----------------------------------------------------| 

e-----4-----4------9------9-----4-----4-----4-----4-| 
B--4h6---4h6---9h11---9h11---4h6---4h6---4h6---4h6--| 
G---------------------------------------------------| 
D---------------------------------------------------| 
A---------------------------------------------------| 
E---------------------------------------------------| 

e-----------------------------------| 
B--4~~--2~~--0-2~~---4~~--2~~--0-2~-| 
G-----------------------------------| 
D-----------------------------------| 
A-----------------------------------| 
E-----------------------------------| 

Solo 

e----------------------------------------------------| 
B--4~~--2~~--0-2~~---4~~--2~~--0-2~--4~~--2~~--0-2~~-| 
G----------------------------------------------------| 
D----------------------------------------------------| 
A----------------------------------------------------| 
E----------------------------------------------------| 

e---------------------------------------| 
B--0--2--0--2--4~--2-0--4~~--2~~--0-2~~-| 
G---------------------------------------| 
D---------------------------------------| 
A---------------------------------------| 
E---------------------------------------| 


Guitar 2 (Alexander Cole) 

Verse 

e--9--9--9--9--9---7-7-7-7-7-7--9-9-9-9-9-9-9---2-2-2-2-2-| 
B--9--9--9--9--9---7-7-7-7-7-7--10-10-10-10-10--2-2-2-2-2-| 
G--10-10-10-10-10--8-8-8-8-8-8--10-10-10-10-10--3-3-3-3-3-| 
D--11-11-11-11-11--9-9-9-9-9-9--11-11-11-11-11--4-4-4-4-4-| 
A--11-11-11-11-11--9-9-9-9-9-9--11-11-11-11-11--4-4-4-4-4-| 
E--9--9--9--9--9---7-7-7-7-7-7--9--9--9--9--9---2-2-2-2-2-| 

e--9--9--9--9--9---4-4-4--2-2-2--9-9-9-9-9-9-9--| 
B--9--9--9--9--9---4-4-4--2-2-2--10-10-10-10-10-| 
G--10-10-10-10-10--5-5-5--3-3-3--10-10-10-10-10-| 
D--11-11-11-11-11--6-6-6--4-4-4--11-11-11-11-11-| 
A--11-11-11-11-11--6-6-6--4-4-4--11-11-11-11-11-| 
E--9--9--9--9--9---4-4-4--2-2-2--9--9--9--9--9--| 

Chorus 

e--4-4-4-4-4-4--9--9--9--9--9---4-4-4-4-4-4--9--9--9--9--9--| 
B--4-4-4-4-4-4--9--9--9--9--9---4-4-4-4-4-4--9--9--9--9--9--| 
G--5-5-5-5-5-5--10-10-10-10-10--5-5-5-5-5-5--10-10-10-10-10-| 
D--6-6-6-6-6-6--11-11-11-11-11--6-6-6-6-6-6--11-11-11-11-11-| 
A--6-6-6-6-6-6--11-11-11-11-11--6-6-6-6-6-6--11-11-11-11-11-| 
E--4-4-4-4-4-4--9--9--9--9--9---4-4-4-4-4-4--9--9--9--9--9--| 

e--4-4-4-4-4-4--9--9--9--9--9---4-4-4-4-4-4-4-4-4-4-4--2-2-2-2-2-2-2-2-2-2-| 
B--4-4-4-4-4-4--9--9--9--9--9---4-4-4-4-4-4-4-4-4-4-4--2-2-2-2-2-2-2-2-2-2-| 
G--5-5-5-5-5-5--10-10-10-10-10--5-5-5-5-5-5-5-5-5-5-5--3-3-3-3-3-3-3-3-3-3-| 
D--6-6-6-6-6-6--11-11-11-11-11--6-6-6-6-6-6-6-6-6-6-6--4-4-4-4-4-4-4-4-4-4-| 
A--6-6-6-6-6-6--11-11-11-11-11--6-6-6-6-6-6-6-6-6-6-6--4-4-4-4-4-4-4-4-4-4-| 
E--4-4-4-4-4-4--9--9--9--9--9---4-4-4-4-4-4-4-4-4-4-4--2-2-2-2-2-2-2-2-2-2-| 
share this page

See Also: