E-Chords
Bikini Kill

Tell Me So(Tabs)

Bikini Kill

roll up this ad to continue

 
Intro: 
 
e:------------------|-----------------|-----------------|-----------------|| 
B:------------------|-----------------|-----------------|-----------------|| 
G:------------------|-----------------|-----------------|-----------------|| 
D:------------------|-----------------|---------------2-|-----------2-2-2-|| 
A:------------------|-----------------|---------------2-|-----------2-2-2-|| 
E:------------------|-----------------|---------------0-|-----------0-0-0-|| 
 
G:------------------|-----------------|-----------------|-----------------|| 
D:--5---5-5-7-7-7-2-|---2---2---2-2-2-|-5-5-5-5-7-7-7-2-|---2---2---2-2-2-|| 
A:------------------|-----------------|-----------------|-----------------|| 
E:------------------|-----------------|-----------------|-----------------|| 
 
 
1st verse: 
 
 
e:------------------|-----------------|-----------------|-----------------|| 
B:------------------|-----------------|-----------------|-----------------|| 
G:---------------(4)|----------(4-4-4)|--------------(4)|----------(4-4-4)|| 
D:--5-5-5-5-7-7-7-2-|-----------2-2-2-|-5-5-5-5-7-7-7-2-|-----------2-2-2-|| 
A:--5-5-5-5-7-7-7-2-|-----------2-2-2-|-5-5-5-5-7-7-7-2-|-----------2-2-2-|| 
E:--3-3-3-3-5-5-5-0-|-----------0-0-0-|-3-3-3-3-5-5-5-0-|-----------0-0-0-|| 
 
G:------------------|-----------------|-----------------|-----------------|| 
D:--5-5-5-5-7-7-5-2-|---2---2---2-2-2-|-5-5-5-5-7-5-0-2-|---2---2---2-2-2-|| 
A:------------------|-----------------|-----------------|-----------------|| 
E:------------------|-----------------|-----------------|-----------------|| 
 
 
For rest of song, guitar plays:                                         
 
e:------------------|-----------------|| 
B:------------------|-----------------|| 
G:------------------|-----------------|| 
D:--5-5-5-5-7-7-7-2-|---2-2-2-2-2-2-2-|| 
A:--5-5-5-5-7-7-7-2-|---2-2-2-2-2-2-2-|| 
E:--3-3-3-3-5-5-5-0-|---0-0-0-0-0-0-0-|| 
 
G:------------------|-----------------|| 
D:------------------|-----------------|| 
A:------------------|-----------------|| 
E:------------------|-----------------|| 
share this page

See Also: