E-Chords
Bikini Kill

Strawberry Julius(Tabs)

Bikini Kill

roll up this ad to continue

(intro) 
E|------------------------------------------------| 
B|------------------------------------------------| 
G|-4-4---7-7---4-4---7-7---4-4---7-7---6----------| 
D|-4-4---7-7---4-4---7-7---4-4---7-7---6----------| 
A|-2-2---5-5---2-2---5-5---2-2---5-5---4----------| 
E|------------------------------------------------| 
Repeat for 'It's you...' 
Repeat again for 'Watch me now...' 

'I wanna burn baby burn....' 
E|------------------------------------------------| 
B|------------------------------------------------| 
G|------------------------------------------------| 
D|-2-----------5-----------2-----------5----------| 
A|-2-----------5-----------2-----------5----------| 
E|-0-----------3-----------0-----------3----------| 

E|------------------------------------------------| 
B|------------------------------------------------| 
G|------------------------------------------------| 
D|-2-----------5-----------2-----------7----------| 
A|-2-----------5-----------2-----------7----------| 
E|-0-----------3-----------0-----------5----------| 

'come on' 
E|------------------------------------------------| 
B|------------------------------------------------| 
G|-5-----------------------7----------------------| 
D|-5-----------5-----------7----------------------| 
A|-3-----------5-----------5----------------------| 
E|-------------3----------------------------------| 

'....I wanna tell you something.' 
E|------------------------------------------------| 
B|------------------------------------------------| 
G|-5-----------------------2----------------------| 
D|-5-----------5-----------2----------------------| 
A|-3-----------5-----------0----------------------| 
E|-------------3----------------------------------| 
share this page

See Also: