E-Chords
Bikini Kill

Speedheart(Tabs)

Bikini Kill

roll up this ad to continue

 
Intro: 
 
e:------------------|-----------------|-----------------|-----------------| 
B:------------------|-----------------|-----------------|-----------------| 
G:----------2---2-2-|-4---4-4-2---2-2-|---------2---2-2-|-4---4-4-2-------| 
D:--2---2---2---2-2-|-2---2-2-2---2-2-|-2---2---2---2-2-|-2---2-2-2-------| 
A:--2---2---0---0-0-|-2---2-2-0---0-0-|-2---2---0---0-0-|-2---2-2-0-------| 
E:--0---0-3---------|-----------------|-0---0-3---------|-----------------| 
 
 
e:-----------------|-----------------|-----------------|-----------------|| 
B:-----------------|-----------------|-----------------|-----------------|| 
G:-2---2-5-7---7-5-|-2---2-5-7-------|---------2---2-2-|---------2---2-2-|| 
D:-2---2-5-7---7-5-|-2---2-5-7-------|-2---2---2---2-2-|-2---2---2---2-2-|| 
A:-0---0-3-5---5-3-|-0---0-3-5-------|-2---2---0---0-0-|-2---2---0---0-0-|| 
E:-----------------|-----------------|-0---0-3---------|-0---0-3---------|| 
 
Verse: 
 
e:------------------|-----------------|-----------------|-----------------| 
B:------------------|-----------------|-----------------|-----------------| 
G:----------2---2---|---------2-------|-----------------|-----------------| 
D:--2---2---2---2---|-2---2---2-------|-2---2-----------|-2---2-----------| 
A:--2---2---0---0---|-2---2---0-------|-2---2---2---0---|-2---2---2-------| 
E:--0---0-3-------3-|-0---0-3---------|-0---0-3---------|-0---0-3---------| 
 
 
e:-----------------|-----------------|-----------------|-----------------| 
B:-----------------|-----------------|-----------------|-----------------| 
G:-2---2-5-7---7-5-|-2---2-5-7---7---|---------2---2---|---------2---2---| 
D:-2---2-5-7---7-5-|-2---2-5-7---7---|-2---2---2---2---|-2---2---2---2---| 
A:-0---0-3-5---5-3-|-0---0-3-5---5---|-2---2---0---0---|-2---2---0---0---| 
E:-----------------|-----------------|-0---0-3-------3-|-0---0-3---------| 
 
 
e:-----------------|-------|| 
B:-----------------|-------|| 
G:-4-4-4-4-4-4-4-4-|-4-----|| 
D:-4-4-4-4-4-4-4-4-|-4-----|| 
A:-2-2-2-2-2-2-2-2-|-2-----|| 
E:-----------------|-------|| 
 
Chorus: 
 
e:------------------|-----------------|-----------------|-----------------|| 
B:------------------|-----------------|-----------------|-----------------|| 
G:--4---4---4-2-2-4-|---4-4---4-2-2-4-|-4---4---4-2-2---|-9-------7-------|| 
D:--4---4---4-2-2-4-|---4-4---4-2-2-4-|-4---4---4-2-2---|-9-------7-------|| 
A:--2---2---2-0-0-2-|---2-2---2-0-0-2-|-2---2---2-0-0---|-7-------5-------|| 
E:------------------|-----------------|-----------------|-----------------|| 
 
e:------------------|-----------------|-----------------|-----------------|| 
B:------------------|-----------------|-----------------|-----------------|| 
G:------------------|-----------------|-----------------|-----------------|| 
D:--2---2---2-5-5-7-|---7-7-7-7-7-5---|-2---2---2-5---7-|---7-7-7-7-7-5---|| 
A:--2---2---2-5-5-7-|---7-7-7-7-7-5---|-2---2---2-5---7-|---7-7-7-7-7-5---|| 
E:--0---0---0-3-3-5-|---5-5-5-5-5-3---|-0---0---0-3---5-|---5-5-5-5-5-3---|| 
 
e:-----------------|-------|| 
B:-----------------|-------|| 
G:-4-4-4-4-4-4-4-4-|-4-----|| 
D:-4-4-4-4-4-4-4-4-|-4-----|| 
A:-2-2-2-2-2-2-2-2-|-2-----|| 
E:-----------------|-------|| 
share this page

See Also: