E-Chords
Bikini Kill

Resist Psychic(Tabs)

Bikini Kill

roll up this ad to continue

1:20 
D|---------------------------| 
A|---------------------------| 
F|---7----9------------------| 
C|-7-7--7-9------------------| 
G|-7-5--7-7--0-0-0-0-0-0-0-0-| 
D|-5----5--------------------| 
             . . . . . . . . 
:57 
D|----------------------------| 
A|----------------------------| 
F|---9---11-------------------| 
C|-9-9-9-11-------------------| 
G|-9-7-9-9--0-0-0-0-0-0-0-0---| 
D|-7---7----------------------| 
            . . . . . . . . 
1:20 
D|---------------------------| 
A|---------------------------| 
F|---7----9------------------| 
C|-7-7--7-9------------------| 
G|-7-5--7-7--0-0-0-0-0-0-0-0-| 
D|-5----5--------------------| 
share this page

See Also: