E-Chords
Bikini Kill

Reject All American(Tabs)

Bikini Kill

roll up this ad to continue

 
Intro: 
 
e:------------------|---------------------|| 
B:------------------|---------------------|| 
G:--4---4---4-4-4-4-|---7---11---11-11-11-|| 
D:--4---4---4-4-4-4-|---7---11---11-11-11-|| 
A:--2---2---2-2-2-2-|---5----9----9--9--9-|| 
E:------------------|---------------------|| 
 
Main riff, verse and chorus: 
 
 
e:------------------|-----------------|-----------------|-----------------|| 
B:------------------|-----------------|-----------------|-----------------|| 
G:--9---9---x-9-9-9-|-----------------|-9---9---x-9-9-9-|-------7---7-7-7-|| 
D:--9---9---x-9-9-9-|---7---7---7-7-7-|-9---9---x-9-9-9-|---7---7---7-7-7-|| 
A:--7---7---x-7-7-7-|---7---7---7-7-7-|-7---7---x-7-7-7-|---7---5---5-5-5-|| 
E:------------------|---5---5---5-5-5-|-----------------|---5-------------|| 
 
Bridge: 
 
e:------------------------|-----------------------|| 
B:------------------------|-----------------------|| 
G:--12-12-12-12-----------|-----------------------|| 
D:--12-12-12-12---10---12-|---12---12-12-12-12-12-|| 
A:--10-10-10-10---10---12-|---12---12-12-12-12-12-|| 
E:-----------------8---10-|---10---10-10-10-10-10-|| 
 
End: 
 
e:------------------||-------|| 
B:------------------||-------|| 
G:--4-4-4-4-4-4-4-4-||-9-----|| 
D:--4-4-4-4-4-4-4-4-||-9-----|| 
A:--2-2-2-2-2-2-2-2-||-7-----|| 
E:------------------||-------|| 
share this page

See Also: