E-Chords
Bikini Kill

Magnet(Tabs)

Bikini Kill

roll up this ad to continue

 
Main Riff, lower note doubled by bass: 
(can also be played as power chords) 
 
e:------------------|-----------------|-----------------|-----------------|| 
B:------------------|-----------------|-----------------|-----------------|| 
G:--4-4-4-4-4-4-4---|-9-9-9-9-9-9-9---|-5-5-5-5-5-5-5---|-7-7-7-7-7-7-7---|| 
D:------------------|-----------------|-----------------|-----------------|| 
A:--2-2-2-2-2-2-2---|-7-7-7-7-7-7-7---|-3-3-3-3-3-3-3---|-5-5-5-5-5-5-5---|| 
E:------------------|-----------------|-----------------|-----------------|| 
 
Second Part, also doubled by bass: 
 
 
e:------------------|-----------------|-----------------|-----------------|| 
B:------------------|-----------------|-----------------|-----------------|| 
G:------------------|-----------------|-----------------|-----------------|| 
D:--2-2-2-2-2-0-----|-----------------|-----------------|-----------------|| 
A:------------------|-2-2-2-2-2-0-----|-3---3---3-3-3-0-|---0-0---0-0-2---|| 
E:------------------|-----------------|-----------------|-----------------|| 
 
e:------------------|-----------------|----------------------| 
B:------------------|-----------------|----------------------| 
G:--9-9-9-9-9-7-----|-----------------|----------------------| 
D:------------------|-9-9-9-9-9-7-----|-10---10---10-10-10-7-| 
A:--7-7-7-7-7-5-----|-----------------|----------------------| 
E:------------------|-7-7-7-7-7-5-----|--8----8----8--8--8-5-| 
 
 
e:-----------------|| 
B:-----------------|| 
G:-----------------|| 
D:---7-7---7-7-9---|| 
A:-----------------|| 
E:---5-5---5-5-7---|| 
 
Last two chords at end: 
 
 
e:--------|--------|| 
B:--------|--------|| 
G:--9-----|--------|| 
D:--------|--2-----|| 
A:--7-----|--2-----|| 
E:--------|--0-----|| 
share this page

See Also: