E-Chords
Bikini Kill

Hamster Baby(Tabs)

Bikini Kill

roll up this ad to continue

Key: D
(afinação D A F C G D) 

|------------------------------------------| 
|------------------------------------------| 
|------------------------------------------| 
|-------2-2-2------------------------------| 
|-0-0-0-------2-2-0-2-1--------------------| 
|------------------------------------------| 

00:31 
|------------------------------------------| 
|------------------------------------------| 
|-66666666---66666666--9999----66666666----| 
|-66666666---66666666--9999-9--66666666----| 
|-44444444---44444444--7777-9--44444444----| 
|---------------------------7--------------| 

00:47 
|------------------------------------------| 
|------------------------------------------| 
|------------------------------------------| 
|-------2-2-2------------------------------| 
|-0-0-0-------2-2-0-2-1--------------------| 
|------------------------------------------| 

01:14 
|------------------------------------------| 
|------------------------------------------| 
|-66666666---66666666--9-9----66666666-----| 
|-66666666---66666666--9-9-9--66666666-----| 
|-44444444---44444444--7-7-9--44444444-----| 
|--------------------------7---------------| 

01:24 
|------------------------------------------| 
|------------------------------------------| 
|------------------------------------------| 
|-------2-2-2------------------------------| 
|-0-0-0-------2-2-0-2-1--------------------| 
|------------------------------------------| 

01:37 
|------------------------------------------| 
|------------------------------------------| 
|-66666666---66666666---66666666---6-5-4---| 
|-66666666---66666666---66666666---6-5-4---| 
|-44444444---44444444---44444444---4-3-2---| 
|------------------------------------------| 

01:48 
|------------------------------------------| 
|------------------------------------------| 
|------------------------------------------| 
|-------2-2-2------------------------------| 
|-0-0-0-------2-2-0-2-1--------------------| 
|------------------------------------------| 
share this page

See Also: