E-Chords
Bikini Kill

For Tammy Rae(Tabs)

Bikini Kill

roll up this ad to continue

-|----------------------------|-- 
-|----------------------------|-- 
-|-------4-4-4-------4-4-4----|-- 
-|-3-3-3-4-4-4-3-3-3-4-4-4----|-- 
-|-3-3-3-2-2-2-3-3-3-2-2-2----|-- 
-|-1-1-1-------1-1-1----------|-- 

-|------------------------------------------------------------------|-- 
-|------------------------------------------------------------------|-- 
-|-----------------5-5-5-5-4-4-4-4-----------------5-5-5-5-4-4-4-4--|-- 
-|-5-5-5-5-5-5-5-5-5-5-5-5-4-4-4-4-5-5-5-5-5-5-5-5-5-5-5-5-4-4-4-4--|-- 
-|-5-5-5-5-5-5-5-5-3-3-3-3-2-2-2-2-5-5-5-5-5-5-5-5-3-3-3-3-2-2-2-2--|-- 
-|-3-3-3-3-3-3-3-3-----------------3-3-3-3-3-3-3-3------------------|-- 

-|----------------------------------------------------------|-- 
-|----------------------------------------------------------|-- 
-|-5-5-5-4-4-4-4-5-5-5---------5-5-5-4-4-4-4-5-5-5----------|-- 
-|-5-5-5-4-4-4-4-5-5-5-5-5-5-5-5-5-5-4-4-4-4-5-5-5-5-5-5-5--|-- 
-|-3-3-3-2-2-2-2-3-3-3-5-5-5-5-3-3-3-2-2-2-2-3-3-3-5-5-5-5--|-- 
-|---------------------3-3-3-3---------------------3-3-3-3--|-- 
share this page

See Also: