E-Chords
Bikini Kill

Demirep(Tabs)

Bikini Kill

roll up this ad to continue

I'm sorry that i'm getting chubby.... 
E|-------------------------------------------------------------------------- 
B|-------------------------------------------------------------------------- 
G|10-10-10-10-10-10-10-10-10-10-10-10-10-8---------------------------------- 
D|10-10-10-10-10-10-10-10-10-10-10-10-10-8-10-10-10-10-10-10-10-10-10-10-10- 
A|-8--8--8--8--8--8--8--8--8--8--8--8--8-8-10-10-10-10-10-10-10-10-10-10-10- 
E|------------------------------------------8--8--8--8--8--8--8--8--8--8--8- 

You collect yr trustfund baby.... 
E|--------------------------------------------------------------------------- 
B|--------------------------------------------------------------------------- 
G|10-10--8--8-10-10--8--8-10-10--8--8-10--8----10-10--8--8-10-10--8--8-10-10- 
D|10-10-10-10-10-10-10-10-10-10-10-10-10-10-10-10-10-10-10-10-10-10-10-10-10- 
A|--------------------------------------------------------------------------- 
E|--------------------------------------------------------------------------- 

E|---------------------------------------------------------------------------- 
B|---------------------------------------------------------------------------- 
G|-10-10-8--8--10-10-8--8--10-10-8--8--12-12-12-12-12-12-12-12-12-12-12-12-10~~ 
D|-10-10-10-10-10-10-10-10-10-10-10-10-(0-0--0--0--0--0--0--0--0--0--0--0---0) 
A|---------------------------------------------------------------------------- 
E|---------------------------------------------------------------------------- 

I, I am hiding.... 
E|--------------------------------------------------------------------------- 
B|--------------------------------------------------------------------------- 
G|10-10-10-10-10-10-10-10-10-10-10-10-10-8----------------------------------- 
D|10-10-10-10-10-10-10-10-10-10-10-10-10-8-10-10-10-10-10-10-10-10-10-10-10-- 
A|-8--8--8--8--8--8--8--8--8--8--8--8--8-8-10-10-10-10-10-10-10-10-10-10-10-- 
E|------------------------------------------8--8--8--8--8--8--8--8--8--8--8-- 

You never know what.... 
E|--------------------------------------------------------------------------- 
B|--------------------------------------------------------------------------- 
G|10-10-8--8--10-10-8--8--10-10-8--8--10-8-----10-10-8--8--10-10-8--8--10-10- 
D|10-10-10-10-10-10-10-10-10-10-10-10-10-10-10-10-10-10-10-10-10-10-10-10-10- 
A|--------------------------------------------------------------------------- 
E|--------------------------------------------------------------------------- 

E|------------------------------------------------------------------------------------------ 
B|------------------------------------------------------------------------------------------ 
G|-10-8--10-8--10-10-8--8--10-10-8------10-10-10-10-10-10-8---10--8---10--8---10--8---10--8- 
D|-10-10-10-10-10-10-10-10-10-10-10-10--10-10-10-10-10-10-10--10--10--10--10--10--10--10--10 
A|------------------------------------------------------------------------------------------ 
E|------------------------------------------------------------------------------------------ 

...live..... 
E|---------------------------------------------------------------------------- 
B|---------------------------------------------------------------------------- 
G|---------------(9^^^)------------------------------------------------------- 
D|-8^^^^^^~~~~~~~~8^^^^^^^^^^~~~~~8^^^^^^^^^^~~~~8^^^^^^^~~~~~~~-------------- 
A|-0--------------0---------------0--------------0---------------------------- 
E|---------------------------------------------------------------------------- 

I could scream the truth..... (4x) 
G|10----10-------10-10----- 
D|10-10-10-10-10-10-10-10- 
A|10-10-10-10-10-10-10-10- 
E|8--8--8--8--8--8--8--8-- 
share this page

See Also: