E-Chords
Bikini Kill

Blood One(Tabs)

Bikini Kill

roll up this ad to continue

 
Intro: 
 
e:------------------|-----------------|-----------------|-----------------|| 
B:------------------|-----------------|-----------------|-----------------|| 
G:------------------|-----------------|-----------------|-----------------|| 
D:--7-7-7-7-7-2---5-|---5-5-5-5-6---7-|---7-7-7-7-2---5-|---5-5-5-5---6---|| 
A:--5-5-5-5-5-0---3-|---3-3-3-3-4---5-|---5-5-5-5-0---3-|---3-3-3-3---4---|| 
E:------------------|-----------------|-----------------|-----------------|| 
 
G:------------------|-----------------|-----------------|-----------------|| 
D:------------------|-----------------|-----------------|-----------------|| 
A:--5-5-5-5-5-0---3-|---3-3-3-3-4---5-|---5-5-5-5-0---3-|---3-3-3-3---4---|| 
E:------------------|-----------------|-----------------|-----------------|| 
 
The whole song is basically one riff repeated, with some guitar 
feedback: 
 
 
e:------------------|-----------------|| 
B:------------------|-----------------|| 
G:------------------|-----------------|| 
D:--7-7-7-7-7-2---5-|---5-5-5-5---6---|| 
A:--5-5-5-5-5-0---3-|---3-3-3-3---4---|| 
E:------------------|-----------------|| 
 
G:------------------|-----------------|| 
D:------------------|-----------------|| 
A:--5-5-5-5-5-0---3-|---3-3-3-3---4---|| 
E:------------------|-----------------|| 
share this page

See Also: