E-Chords
Bikini Kill

Alien She(Tabs)

Bikini Kill

roll up this ad to continue

 
Main Riff: 
 
 
e:------------------|------------------|------------------|-----------------| 
B:------------------|------------------|------------------|-----------------| 
G:--7---------------|------------------|------------------|-----------------| 
D:--5---7-7-7-7-7-7-|--5---------------|--7---------------|--7-------10-----| 
A:------5-5-5-5-5-5-|--3---5-5-5-5-5-5-|--5---7-7-7-7-7-7-|--5---7----8-----| 
E:------------------|------3-3-3-3-3-3-|------5-5-5-5-5-5-|------5----------| 
 
Chorus: 
 
 
e:------------------|------------------|| 
B:------------------|------------------|| 
G:------------------|------------------|| 
D:--2---------------|------------------|| 
A:--2-------0---0-0-|--1-1-2-2-1-1-2-2-|| 
E:--0---4-----------|------------------|| 
 
The last part: 
 
 
e:------------------|-----------------|-----------------|-----------------|| 
B:------------------|-----------------|-----------------|-----------------|| 
G:--7---7-7---7-7-7-|-7---7-7---7-7-7-|-9---9-9---9-9-9-|-9---9-9---9-9-9-|| 
D:--7---7-7---7-7-7-|-7---7-7---7-7-7-|-9---9-9---9-9-9-|-9---9-9---9-9-9-|| 
A:--5---5-5---5-5-5-|-5---5-5---5-5-5-|-7---7-7---7-7-7-|-7---7-7---7-7-7-|| 
E:------------------|-----------------|-----------------|-----------------|| 
 
e:------------------|-----------------|-----------------|---------|| 
B:------------------|-----------------|-----------------|---------|| 
G:--7---------------|-7---------------|-7---------------|-7-------|| 
D:--5---7-7-7-7-7-7-|-5---7-7-7-7-7-7-|-5---7-7-7-7-7-7-|-5-------|| 
A:------5-5-5-5-5-5-|-----5-5-5-5-5-5-|-----5-5-5-5-5-5-|---------|| 
E:------------------|-----------------|-----------------|---------|| 
share this page

See Also: