E-Chords
Big & Rich

Wild West Show Tab(Tabs)

Big & Rich

roll up this ad to continue

Big and Rich 
Wild West Show 
Horse of a Different Color 
 
 
 
 
 
(verse) 
 
/----------------------------------------------------------/ 
/------------1-------------------1------------------------/ 
/------------- --2-------------------2--------------------/ 
/-------2-------------------2-----------------------------/ 
/----0------------------0---------------------------------/ 
/----------------------------------------------------------/ 
 
/-------------------------------------------------------/ 
/--------1-------------1--------------------------------/ 
/-----------0-------------0-----------------------------/ 
/-----2-------------2-----------------------------------/ 
/---3-------------3--------------------------------------/ 
/--------------------------------------------------------/ 
 
/-------------------------------------------------------/ 
/--------3------------3---------------------------------/ 
/-------------0-----------0-----------------------------/ 
/-----0------------0------------------------------------/ 
/---2------------2--------------------------------------/ 
/-------------------------------------------------------/ 
 
/-------------------------------------------------------/ 
/---------3-----------------3---------------------------/ 
/------------2-----------------2------------------------/ 
/------0--------------0---------------------------------/ 
/----0-------------0------------------------------------/ 
/-------------------------------------------------------/ 
share this page

See Also: