E-Chords
Big & Rich

Livin' This Life(Tabs)

Big & Rich

roll up this ad to continue

This is a really beautiful song and I hope yall' enjoy it! 
Gimme some comments! 
 
 
|---------------------------------------------------------- 
|---------------------------------------------------------- 
|-----------------4--------4--------4---------------------- 
|--------4------2---2----2---2----4---4--------4----------- 
|----2h4---4--0-----------------2----------2h4---4--------- 
|--2-------------------0-----------------2----------------- 
 
 
|--------------------x------------------------------------- 
|--------------------x------------------------------------- 
|------4--------4----4------------------------------------- 
|----2---2----2---2--4------------------------------------- 
|--0-----------------2------------------------------------- 
|-----------0--------x------------------------------------- 
 
 
 
 
share this page

See Also: