E-Chords
Big & Rich

Jalapeno(Tabs)

Big & Rich

roll up this ad to continue

E|--------------------12----------------------------------------------- 
B|--------------------12----------------------------------------------- 
G|--------------------12----------------------------------------------- 
D|-------------------------------------------------------------------- 
A|-------5--5h7-------------------------------------------------------- 
E|-0h5h7--0-----0-------------------------------------------------------- 
 
Btwn Verses play: 
E|--12--12--12--12--14--12----------------------------------------------- 
B|--12--12--12--12--14--12----------------------------------------------- 
G|--12--12--12--12--14--12----------------------------------------------- 
D|-------------------------------------------------------------------- 
A|--------------------------------------------------------------- 
E|--------------------------------------------------------------- 
 
 
This is my first tab. Its as close as I hear it. 
 
share this page

See Also: