E-Chords
Big & Rich

Comin' To Your City(Tabs)

Big & Rich

roll up this ad to continue

Key: D
*Note* If you can't play the power chords and/or progressions just 
play the normal chord and it'll still work. 
 
 
Here's the tab charts for the verses: 
 
  (D progression) (keep repeating) 
E---------------------------- 
B---------------------------- 
G---------------------------- 
D--7-7--9-9--10-10--9-9------ 
A--5-5--5-5--5--5---5-5------ 
E---------------------------- 
  
   D5 - E5 -  F5 - F#5 
E---------------------------- 
B---------------------------- 
G--7-7--9-9--10-10--11-11----- 
D--7-7--9-9--10-10--11-11----- 
A--5-5--7-7--8--8---9--9------ 
E---------------------------- 
 
 
  (G progression) (keep repeating) 
E---------------------------- 
B---------------------------- 
G--7-7--9-9--10-10--9-9------ 
D--5-5--5-5--5--5---5-5------ 
A---------------------------- 
E---------------------------- 
 
  (A progression) (keep repeating) 
E---------------------------- 
B---------------------------- 
G---------------------------- 
D--2-2--4-4--5-5--4-4-------- 
A--0-0--0-0--0-0--0-0-------- 
E---------------------------- 
 
 
D5 =  x577xx 
F5 =  133xxx  
G5 =  355xxx 
 
 
 
Chorus: 
           D5    F5 G5         D5   F5 G5  
Well we're comin      to your city 
       D5                   F5   -     G5       D5  F5 G5  
Gonna play our guitars and sing you a country song 
              D      F5     -    G5      D    F5 G5  
We'll all be flying higher than a jet airliner 
            D                          F5  -  G5      D   F5 G5  
And if you want a little bang in your ying-yang come along 
 
 
        D (progression) 
Well we flew through Cincinnati, and we all got really happy 
                                                 D5 E5 F5 F#5 
Grabbed a bowl of that skyline chili along the way 
        G (progression) 
Then we rolled on in to Canton, scared the hell out of Marilyn Manson 
 
And the party started happenin, hey hey hey 
            A (progression) 
And in the middle of a Charleston night, we ran into Jessico White 
 
And a little moonshine got us right plum smack insane 
 
 
 
CHORUS 
 
 
 
     D (progression) 
Well we broke down in Greenville, in the middle of a hayfield 
                                              D5 E5 F5 F#5 
But a Budlight truck pulled up and helped us out 
            G (progression) 
So we dead headed up to Philly, partied down like real hillbillies 
 
Brought the music mafia and rocked it out 
     A (progression) 
And Chippewa's where we go, when we're up in Buffalo 
 
Don't you know those yankees drink enough to drown 
 
 
 
Bridge: (you can play it like this - keep repeating) 
 
E------------------- 
B------------------- 
G----7-------------- 
D----7-------------- 
A--5---------------- 
E------7--8--9------ 
 
 
Now LA's got the freaks and finks and 15 dollar drinks 
And San Antonio is a wild wild rodeo 
And in Phoenix Arizona we drank way too much Corona 
And we woke up by the river in Jeff City, MO 
 
 
CHORUS (x2) 
 
share this page

See Also: