E-Chords
Big Dumb Face

Rebel(Tabs)

Big Dumb Face

BIG dumb FACE - Duke Lion FIghts the Terror!!! - Rebel 
tabbed by:  BIGdumbHOLDEN 
 
Tune  1 steps down 
The song consits of these chords, in this order.  It's insanely easy. 
 
C#-----------------------------|  
G#-----------------------------|  
E------------------------------|  
B----2--5--7--2----------------|  
F#---2--5--7--2----------------|  
C#---0--3--5--0----------------|  
 
Verse- 
C#----------------------------------------------------------------------------------------------|  
G#----------------------------------------------------------------------------------------------|  
E-----------------------------------------------------------------------------------------------|  
B-------------2--------------------5--------------------7----------------------2----------------|  
F#------------2--------------------5--------------------7----------------------2----------------|  
C#------------0--------------------3--------------------5----------------------0----------------|  
  So you say   that you're a rebel,  you pump that bass,  turn down the trebel. 
 
For the chorus, you use those same chords. 
Assume this is in 4/4 time (+ = quarter rest): 
C#----------|---------|---------|---------|  
G#----------|---------|---------|---------| 
E-----------|---------|---------|---------|  
B---+-2-+-2-|-+-5-+-3-|-+-7-+-7-|-+-2-+-2-|  
F#--+-2-+-2-|-+-5-+-3-|-+-7-+-7-|-+-2-+-2-|  
C#--+-0-+-0-|-+-3-+-3-|-+-5-+-5-|-+-0-+-0-|  
           x2        x2        x2        x2 
 
For the interlude, it's just random screaming, pick scrapes, anything you want, really. 
 
The End. 
 

roll up this ad to continue

share this page

See Also: