E-Chords
Bide ou Balde

K-7(Tabs)

Bide ou Balde

Key: F#5
>Riff Intro - Riff Intro 
 
        Guitarra 1 - Sá         
E|------------------------------| 
B|------------------------------| 
G|-----------PAUSA--------------| 
D|------------------------------| 
A|------------------------------| 
E|------------------------------| 
 
          
  Guitarra 2 - Rossatto (Pilla) 
 
   F#5  A5  B5  E5 
E|------------------------------| 
B|------------------------------| 
G|----------44------------------| <- Umas 4x 
D|--44--77--44--22--------------| 
A|--44--77--22--22--------------| 
E|--22--55------00--------------| 
 
 
Riff Versos - Riff Verse 
 
         Guitarra 1 - Sá 
E|-------------------------------| 
B|-------------------------------| 
G|-------------------------------| <- Umas 13x 
D|---4--4-2--2-------2-2-2-2-2---| 
A|--------------4--4-------------| 
E|-------------------------------| 
 
 
   Guitarra 2 - Rossatto (Pilla) 
E|-------------------------------| 
B|-------------------------------| 
G|-------------------------------| 
D|------------PAUSA--------------| 
A|-------------------------------| 
E|-------------------------------| 
 
 
Riff Refrão - Riff Chorus 
 
         Guitarra 1 - Sá 
E|-------------------------------| 
B|-------------------------------| 
G|-------------------------------| <- Umas 4x  
D|-4--4-2-2-4-2-4---4-2-2-4-2-4--| 
A|-------------------------------| 
E|-------------------------------| 
 
  Guitarra 2 - Rossatto (Pilla)    
 
   F#5  A5  B5  E5 
E|-------------------------------| 
B|-------------------------------| 
G|----------44-------------------| <- Umas 4x  
D|--44--77--44--22---------------| 
A|--44--77--22--22---------------| 
E|--22--55------00---------------| 
 
 
Riff Ponte - Riff Bridge 
 
        Guitarra 1 - Sá 
E|-------------------------------| 
B|-------------------------------| 
G|-------------------------------| <- Umas 4x  
D|-4--4-2-2-4-2-4---4-2-2-4-2-4--| 
A|-------------------------------| 
E|-------------------------------| 
 
  Guitarra 2 - Rossatto (Pilla)    
 
   F#5  A5  B5  E5     4X      1X 
E|-----------------------|-------| 
B|-----------------------|-------| 
G|----------44-----------|-------|   
D|--44--77--44--22-------|---4---| 
A|--44--77--22--22-------|---4---| 
E|--22--55------00-------|---2---| 
 
 
 
----------------Música----------------- 
 
Riff Intro (4x) 
Shalalala shalalala 
Shalalala shalalala  
 
Riff Verso (13x) 
Eu tava só tentando... 
Eu tava só tentando... 
Eu tava só tentando... 
Te dizer, que é auto-reverse 
É auto-reverse!  
É auto-reverse! 
Continuos play! 
Continuos play! 
Continuos play! 
Music Non-stop! 
Music Non-stop! 
Music Non-stop! 
Music... 
Ei crianças façam isso em casa! 
 
Riff Refrão (4x) 
Sete dias no deserto, eu e o meu walkman 
As borboletas são lindas Juli, e o meu cavalo está certo 
As estrelas e a lua são como luminárias no céu 
Difícil mesmo vai ser quando tiver que trocar, né?!  
 
Riff Verso (13x) 
Eu tava só tentando... 
Eu tava só tentando... 
Eu tava só tentando... 
Te dizer, que é auto-reverse 
É auto-reverse!  
É auto-reverse! 
Continuos play! 
Continuos play! 
Continuos play! 
Music Non-stop! 
Music Non-stop! 
Music Non-stop! 
Music... 
Agora tentem com mais força, tá?! 
 
Riff Refrão (4x) 
Tem que cuidar pra não engasgar a fita dentro do deck 
A TDK que eu tinha Flaming Lips gravado estorou 
E eles me ensinaram a amar as coisas mais bonitas do mundo 
As feias também, apesar das feias terem sido chatas comigo 
 
Riff Ponte (1x) 
O alto-falante que eu amava me deixou! (Shalalala) 
O alto-falante que eu amava me deixou! (Shalalala) 
O alto-falante que eu amava me deixou! (Shalalala) 
O alto-falante que eu amava me deixou! (Shalalala) 
 
Riff Refrão (8x) 
Tchu Tchurururu 
Tchurururu 
Tchurururu 
Tchurururu 
Tchurururu 
Tchurururu 
Tchurururu 
Tchurururu 
Oh ohh shalalala 
Oh ohh shalalala 
Oh ohh shalalala 
Oh ohh shalalala 
 
Termina em F#5 
 
Eu tava só tentando... 
Eu tava só tentando... 
Eu tava só tentando... 
 
 
_______________________________________________________ 
Contribuição: Felipe 'MI' Teixeira Baixista da Banda El Gavião Selvagem([email protected]) 

roll up this ad to continue

share this page

See Also: