E-Chords
Before Their Eyes

Surrender(Tabs)

Before Their Eyes

roll up this ad to continue

Intro 
Guitar 1: 
D||----------------------------------------------------------------------| 
A||----------------------------------------------------------------------| 
F||----------------------------------------------------------------------| 
C||----------------------------------------------------------------------| 
G||--12121212121212121212121212121212--10101010101010101010101010101010--| 
C||--12121212121212121212121212121212--10101010101010101010101010101010--| 
     . . . . . . . . . . . . . . . .   . . . . . . . . . . . . . . . . 

D||-------------------------------------------------------| 
A||-------------------------------------------------------| 
F||--11111111111111111111111111111111--11~----------------| 
C||--12121212121212121212121212121212--12~---\\pick\\\\---| 
G||-------------------------------------------\\\slide\\--| 
C||-------------------------------------------------------| 
     . . . . . . . . . . . . . . . . 

Guitar 2: 
D||------------------------------------------------------------| 
A||------------------------------------------------------------| 
F||------------------------------------------------------------| 
C||------------------------------------------------------------| 
G||--8888888888888888--5555555555555555--0000000000000000--0~--| 
C||--8888888888888888--5555555555555555--0000000000000000--0~--| 
     ................  ................  ................ 



Guitar 1: 
D||--------------------------------------------|---------------------------------------------| 
A||--------------------------------------------|---------------------------------------------| 
F||-14-----------------10----------------------|-14-----------------10-----------12-10----10-| 
C||----12-10-0-10-12-0----0-14-0-0-12-12-10-12-|----12-10-0-10-12-0----0-14-0-12-------14----| 
G||--------------------------------------------|---------------------------------------------| 
C||--------------------------------------------|---------------------------------------------| 


D||--------------------------------------------|-----------------------------------------------| 
A||--------------------------------------------|-----------------------------------------------| 
F||-14-----------------10----------------------|-------14-------14-------14-------14-------14~-| 
C||----12-10-0-10-12-0----0-14-0-0-12-12-10-12-|-10-12----10-12----10-12----10-12----10-12-----| x2 
G||--------------------------------------------|-----------------------------------------------| 
C||--------------------------------------------|-----------------------------------------------| 


D||-------|-----------------------| 
A||-------|-----------------------| 
F||-------|------------5~----5-5--| 
C||--12~--|-------3~---------3-3--| 
G||-------|--7~--------------7-7--| 
C||-------|-----------------------| 


Guitar 2: 
D||-----------------------------------------------------------------------| 
A||-----------------------------------------------------------------------| 
F||-----------------------------------------------------------------------| 
C||--8888888888888888-5555555555555555-0000000000000000-0000000000000000--| 
G||--8888888888888888-5555555555555555-0000000000000000-0000000000000000--| 
C||--8888888888888888-5555555555555555-0000000000000000-0000000000000000--| 


D||---------------------------------------------------------------------------| 
A||---------------------------------------------------------------------------| 
F||---------------------------------------------------------------------------| 
C||--8888888888888888-5555555555555555-0000000000000000-0000000000000000--0~--| 
G||--8888888888888888-5555555555555555-0000000000000000-0000000000000000--0~--| 
C||--8888888888888888-5555555555555555-0000000000000000-0000000000000000--0~--| 



Verse 
Guitar 1/2: 
D||-------------------------------|-------------------------------| 
A||-------------------------------|-------------------------------| 
F||-------------------------------|-------------------------------| 
C||--------3~------------------5--|--------3~---------------------| 
G||------7~----5--4---------------|------7~----5--4---------------| 
C||--0~-------------888--7---7----|--0~-------------8888-7-7-7-7--| 
                    ..                              ..   . 

D||-------------------------------|-------------------------------| 
A||-------------------------------|-------------------------------| 
F||-------------------------------|-------------------------------| 
C||--------3~------------------5--|--------3~---------------------| 
G||------7~----5--4---------------|------7~----5--4------0-0-0-0--| 
C||--0~-------------888--7---7----|--0~-------------8888-1-1-1-1--| 
                    ..                              ..   . . . . 

D||-------------------------------|-------------------------------| 
A||-------------------------------|-------------------------------| 
F||-------------------------------|-------------------------------| 
C||--------3~------------------5--|--------3~---------------------| 
G||------7~----5--4---------------|------7~----5--4---------------| 
C||--0~-------------888--7---7----|--0~-------------8888-7-7-7-7--| 
                    ..                              ..   . 

D||-------------------------------|-------------------------------| 
A||-------------------------------|-------------------------------| 
F||-------------------------------|-------------------------------| 
C||--------3~------------------5--|--------3~---------------------| 
G||------7~----5--4---------------|------7~----5--4------0-0-0-0--| 
C||--0~-------------888--7---7----|--0~-------------8888-1-1-1-1--| 
                    ..                              ..   . . . . 


Pre-Chorus 
Guitar 1/2: 
D||----------------------|------------------------| 
A||----------------------|------------------------| 
F||----------------------|------------------------| 
C||--8~-----5~-----0~----|----8~-----10~-----12~--| 
G||--8~-----5~-----0~----|----8~-----10~-----12~--| 
C||--8~-----5~-----0~----|----8~-----10~-----12~--| 



Chorus 
Guitar 1: 
D||--------------------------------------------|---------------------------------------------| 
A||--------------------------------------------|---------------------------------------------| 
F||-14-----------------10----------------------|-14-----------------10-----------12-10----10-| 
C||----12-10-0-10-12-0----0-14-0-0-12-12-10-12-|----12-10-0-10-12-0----0-14-0-12-------14----| 
G||--------------------------------------------|---------------------------------------------| 
C||--------------------------------------------|---------------------------------------------| 


D||--------------------------------------------|-----------------------------------------------| 
A||--------------------------------------------|-----------------------------------------------| 
F||-14-----------------10----------------------|-------14-------14-------14-------14-------14~-| 
C||----12-10-0-10-12-0----0-14-0-0-12-12-10-12-|-10-12----10-12----10-12----10-12----10-12-----| x2 
G||--------------------------------------------|-----------------------------------------------| 
C||--------------------------------------------|-----------------------------------------------| 


D||--------------------------------------------|-----------------------------| 
A||--------------------------------------------|-----------------------------| 
F||-14-----------------10----------------------|-------14-------14-------14--| 
C||----12-10-0-10-12-0----0-14-0-0-12-12-10-12-|-10-12----10-12----10-12-----| 
G||--------------------------------------------|-----------------------------| 
C||--------------------------------------------|-----------------------------| 


Guitar 2: 
D||-------------------------------------------------------------------------------------------| 
A||-------------------------------------------------------------------------------------------| 
F||-------------------------------------------------------------------------------------------| 
C||--8888888888888888-5555555555555555--------------------------------------------------------| x2 
G||--8888888888888888-5555555555555555--0------------------0------0-------------------0-------| 
C||--8888888888888888-5555555555555555--00000-0--0--0--00000--00000-0000-0--0--0--00000-0000--| 
                                         .... .        ....   ....  .... .        ....  .... 

D||-------------------------------------| 
A||-------------------------------------| 
F||-------------------------------------| 
C||--8888888888888888-5555555555555555--| 
G||--8888888888888888-5555555555555555--| 
C||--8888888888888888-5555555555555555--| 



Verse 
Guitar 1/2: 
D||-------------------------------|-------------------------------| 
A||-------------------------------|-------------------------------| 
F||-------------------------------|-------------------------------| 
C||--------3~------------------5--|--------3~---------------------| 
G||------7~----5--4---------------|------7~----5--4---------------| 
C||--0~-------------888--7---7----|--0~-------------8888-7-7-7-7--| 
                    ..                              ..   . 

D||-------------------------------|-------------------------------| 
A||-------------------------------|-------------------------------| 
F||-------------------------------|-------------------------------| 
C||--------3~------------------5--|--------3~---------------------| 
G||------7~----5--4---------------|------7~----5--4------0-0-0-0--| 
C||--0~-------------888--7---7----|--0~-------------8888-1-1-1-1--| 
                    ..                              ..   . . . . 


Guitar 1: 
D||---------------------------------------------------| 
A||---------------------------------------------------| 
F||--14----14----14----14----12----12----12----12-----| 
C||-----12----12----12----12----10----10----10----10--| 
G||---------------------------------------------------| 
C||---------------------------------------------------| 


D||---------------------------------------------------| 
A||---------------------------------------------------| 
F||--11----11----11----11----11----11----11----11-----| 
C||-----12----12----12----12----12----12----12----12--| 
G||---------------------------------------------------| 
C||---------------------------------------------------| 


D||---------------------------------------------------| 
A||--------------------------13----13----13----13-----| 
F||--14----14----14----14-----------------------------| 
C||-----12----12----12----12----12----12----12----12--| 
G||---------------------------------------------------| 
C||---------------------------------------------------| 


D||---------------------------------------------------| 
A||---------------------------------------------------| 
F||--11----11----11----11----11----11----11----11-----| 
C||-----12----12----12----12----12----12----12----12--| 
G||---------------------------------------------------| 
C||---------------------------------------------------| 


Guitar 2: 
D||----------------------------------------|------------------------------------------------| 
A||----------------------------------------|------------------------------------------------| 
F||----------------------------------------|------------------------------------------------| 
C||----------------------------------------|------------------------------------------------| 
G||----------------------------------------|------------------------------------------------| 
C||--88888888--55555555--0000000000000000--|--88888888--1010101010101010--0000000000000000--| 



Pre-Chorus 
Guitar 1/2: 
D||----------------------|------------------------| 
A||----------------------|------------------------| 
F||----------------------|------------------------| 
C||--8~-----5~-----0~----|----8~-----10~-----12~--| 
G||--8~-----5~-----0~----|----8~-----10~-----12~--| 
C||--8~-----5~-----0~----|----8~-----10~-----12~--| 



Chorus 
Guitar 1: 
D||--------------------------------------------|---------------------------------------------| 
A||--------------------------------------------|---------------------------------------------| 
F||-14-----------------10----------------------|-14-----------------10-----------12-10----10-| 
C||----12-10-0-10-12-0----0-14-0-0-12-12-10-12-|----12-10-0-10-12-0----0-14-0-12-------14----| 
G||--------------------------------------------|---------------------------------------------| 
C||--------------------------------------------|---------------------------------------------| 


D||--------------------------------------------|-----------------------------------------------| 
A||--------------------------------------------|-----------------------------------------------| 
F||-14-----------------10----------------------|-------14-------14-------14-------14-------14~-| 
C||----12-10-0-10-12-0----0-14-0-0-12-12-10-12-|-10-12----10-12----10-12----10-12----10-12-----| x2 
G||--------------------------------------------|-----------------------------------------------| 
C||--------------------------------------------|-----------------------------------------------| 


D||--------------------------------------------|-----------------------------| 
A||--------------------------------------------|-----------------------------| 
F||-14-----------------10----------------------|-------14-------14-------14--| 
C||----12-10-0-10-12-0----0-14-0-0-12-12-10-12-|-10-12----10-12----10-12-----| 
G||--------------------------------------------|-----------------------------| 
C||--------------------------------------------|-----------------------------| 


Guitar 2: 
D||-------------------------------------------------------------------------------------------| 
A||-------------------------------------------------------------------------------------------| 
F||-------------------------------------------------------------------------------------------| 
C||--8888888888888888-5555555555555555--------------------------------------------------------| x2 
G||--8888888888888888-5555555555555555--0------------------0------0-------------------0-------| 
C||--8888888888888888-5555555555555555--00000-0--0--0--00000--00000-0000-0--0--0--00000-0000--| 
                                         .... .        ....   ....  .... .        ....  .... 

D||-------------------------------------| 
A||-------------------------------------| 
F||-------------------------------------| 
C||--8888888888888888-5555555555555555--| 
G||--8888888888888888-5555555555555555--| 
C||--8888888888888888-5555555555555555--| 



Breakdown 
Guitar 1/2: 
D||--------------------------------------------------------| 
A||--------------------------------------------------------| 
F||--------------------------------------------------------| 
C||--------------------------------------------------------| 
G||--0------------------0------0-------------------0-------| 
C||--00000-0--0--0--00000--00000-0000-0--0--0--00000-0000--| 
      .... .        ....   ....  .... .        ....  .... 

D||-------------------------------------------------------------| 
A||-------------------------------------------------------------| 
F||-------------------------------------------------------------| 
C||-------------------------------------------------------------| 
G||--0~----------------0000-----0~------------------------------| 
C||--0~----0--0--0-----0000-----0~----0--0--0----00-11--11--12--| 
           .           ....           .          .. 

D||-------------------------------------------------------------| 
A||-------------------------------------------------------------| 
F||-------------------------------------------------------------| 
C||-------------------------------------------------------------| 
G||--0~----------------0000-----0~------------------------------| 
C||--0~----0--0--0-----0000-----0~----0--0--0----00-11--11--12--| 
           .           ....           .          .. 


Bridge 
Guitar 1: 
D||-----------------------------------------------|-----------------------------------------------| 
A||-----------------------------------------------|-----------------------------------------------| 
F||-------------14---------10---------------------|-------------14---------10---------------------| 
C||--12-0-10-12----12-10-0----14-0-12~--12-10-12--|--12-0-10-12----12-10-0----14-0-12~--12-10-12--| 
G||-----------------------------------------------|-----------------------------------------------| 
C||-----------------------------------------------|-----------------------------------------------| 


D||-----------------------------------------------|------------------------------| 
A||-----------------------------------------------|------------------------------| 
F||-------------14---------10---------------------|--------14-------14-------14--| 
C||--12-0-10-12----12-10-0----14-0-12~--12-10-12--|--10-12----10-12----10-12-----| 
G||-----------------------------------------------|------------------------------| 
C||-----------------------------------------------|------------------------------| 


Guitar 2: 
D||----------------------|---------------------------| 
A||----------------------|---------------------------| 
F||----------------------|---------------------------| 
C||--8~-----5~-----0~----|--8~-----5~-------------0--| 
G||--8~-----5~-----0~----|--8~-----5~-------------0--| 
C||--8~-----5~-----0~----|--8~-----5~-----000000000--| 
                                          ........ 



Chorus / Outro 
Guitar 1: 
D||--------------------------------------------|---------------------------------------------| 
A||--------------------------------------------|---------------------------------------------| 
F||-14-----------------10----------------------|-14-----------------10-----------12-10----10-| 
C||----12-10-0-10-12-0----0-14-0-0-12-12-10-12-|----12-10-0-10-12-0----0-14-0-12-------14----| 
G||--------------------------------------------|---------------------------------------------| 
C||--------------------------------------------|---------------------------------------------| 


D||--------------------------------------------|-----------------------------------------------| 
A||--------------------------------------------|-----------------------------------------------| 
F||-14-----------------10----------------------|-------14-------14-------14-------14-------14~-| 
C||----12-10-0-10-12-0----0-14-0-0-12-12-10-12-|-10-12----10-12----10-12----10-12----10-12-----| x2 
G||--------------------------------------------|-----------------------------------------------| 
C||--------------------------------------------|-----------------------------------------------| 


D||--------------------------------------------|--------------------| 
A||--------------------------------------------|--------------------| 
F||-14-----------------10----------------------|-------14-------14--| 
C||----12-10-0-10-12-0----0-14-0-0-12-12-10-12-|-10-12----10-12-----| 
G||--------------------------------------------|--------------------| 
C||--------------------------------------------|--------------------| 


Guitar 2: 
D||-------------------------------------------------------------------------------------------| 
A||-------------------------------------------------------------------------------------------| 
F||-------------------------------------------------------------------------------------------| 
C||--8888888888888888-5555555555555555--------------------------------------------------------| x2 
G||--8888888888888888-5555555555555555--0------------------0------0-------------------0-------| 
C||--8888888888888888-5555555555555555--00000-0--0--0--00000--00000-0000-0--0--0--00000-0000--| 
                                         .... .        ....   ....  .... .        ....  .... 

D||----------------------------| 
A||----------------------------| 
F||----------------------------| 
C||--8888888888888888-5555555--| 
G||--8888888888888888-5555555--| 
C||--8888888888888888-5555555--| 
 
share this page

See Also: