E-Chords
Before Their Eyes

Revenge(Tabs)

Before Their Eyes

roll up this ad to continue

Key: C
Tabbed by: Joshua Garcia ([email protected]) 

Tabs for the song: Revenge by Before Their Eyes 
Please rate and let me know if you have any corrections. Thank you. 


Tuning: Drop C (C G C F A D) 


Intro 
Guitar 1: 
D||-------------------------------------------------------------------| 
A||-------------------------------------------------------------------| 
F||--1414141414141414141414141414141415151515151515151515151515151515-| 
C||--0-0-0-0-0-0-0-0-0-0-0-0-0-0-0-0-0-0-0-0-0-0-0-0-0-0-0-0-0-0-0-0--| 
G||-------------------------------------------------------------------| 
C||-------------------------------------------------------------------| 

D||-------------------------------------------------------------------| 
A||-------------------------------------------------------------------| 
F||--1212121212121212121212121212121210101010101010109-9-9-9-9-9-9-9--| 
C||--0-0-0-0-0-0-0-0-0-0-0-0-0-0-0-0-0-0-0-0-0-0-0-0-0-0-0-0-0-0-0-0--| x2 
G||-------------------------------------------------------------------| 
C||-------------------------------------------------------------------| 


Guitar 2: 
D||---------------------------------------------------------------| 
A||---------------------------------------------------------------| 
F||---------------------------------------------------------------| 
c||------------------000-0-0-0-0-0-----------------0-0-0-0-0-0-0--| x2 
G||------------------000-0-0-0-0-0-----------------0-0-0-0-0-0-0--| 
C||--3-2-0-3-2-0-0---000-0-0-0-0-0-3-2-0-3-2-0-0---0-0-0-0-0-0-0--| 
                     ... . . . . .                 . . . . . . . 



Verse 
Guitar 1: 
D||----------------------------------------------------| 
A||----------------------------------------------------| 
F||----------3~----------------------------3~----------| 
c||------7~----------------------------7~------7~------| 
G||--5~----------------------------5~--------------5~--| 
C||----------------------------------------------------| 



Chorus 
Guitar 1: 
D||---------------------------------------------------| 
A||---------------------------------------------------| 
F||---------------------------------------------------| 
c||--12-12-15-12-15-12-12-12-14-12-14-12-12-12-14-12--| 
G||---------------------------------------------------| 
C||---------------------------------------------------| 
     .  .     .     .  .  .     .     .  .  .     . 

D||---------------------------------------------------| 
A||---------------------------------------------------| 
F||---------------------------------------------------| 
c||--------14----14-----------------------------------| 
G||--12-12----12----12-12-12-15-12-12-13-12-12-15-12--| 
C||---------------------------------------------------| 
     .  .     .     .  .  .     .  .     .  .     . 

D||---------------------------------------------------| 
A||---------------------------------------------------| 
F||---------------------------------------------------| 
c||--12-12-15-12-15-12-12-12-14-12-14-12-12-12-14-12--| 
G||---------------------------------------------------| 
C||---------------------------------------------------| 
     .  .     .     .  .  .     .     .  .  .     . 

D||---------------------------------------------------| 
A||---------------------------------------------------| 
F||---------------------------------------------------| 
c||---------------------------------------------------| 
G||--12-12-12-12-12-12-12-12-10-10-10-10-10-10-10-10--| 
C||---------------------------------------------------| 


Guitar 2: 
D||------------------------------------------|------------------------------------------| 
A||------------------------------------------|------------------------------------------| 
F||------------------------------------------|------------------------------------------| 
c||--00-----00---00---0---33333333-55555555--|--00-----00---00---0---33333333-11111111--| 
G||--00-----00---00---0---33333333-55555555--|--00-----00---00---0---33333333-11111111--| 
C||--00-----00---00---0---33333333-55555555--|--00-----00---00---0---33333333-11111111--| 



Pre-Verse 
Guitar 1: 
D||-------------------------------------------------------------------| 
A||-------------------------------------------------------------------| 
F||--1414141414141414141414141414141415151515151515151515151515151515-| 
C||--0-0-0-0-0-0-0-0-0-0-0-0-0-0-0-0-0-0-0-0-0-0-0-0-0-0-0-0-0-0-0-0--| 
G||-------------------------------------------------------------------| 
C||-------------------------------------------------------------------| 

D||-------------------------------------------------------------------| 
A||-------------------------------------------------------------------| 
F||--1212121212121212121212121212121210101010101010109-9-9-9-9-9-9-9--| 
C||--0-0-0-0-0-0-0-0-0-0-0-0-0-0-0-0-0-0-0-0-0-0-0-0-0-0-0-0-0-0-0-0--| 
G||-------------------------------------------------------------------| 
C||-------------------------------------------------------------------| 


Guitar 2: 
D||---------------------------------------------------------------| 
A||---------------------------------------------------------------| 
F||---------------------------------------------------------------| 
c||------------------000-0-0-0-0-0-----------------0-0-0-0-0-0-0--| x2 
G||------------------000-0-0-0-0-0-----------------0-0-0-0-0-0-0--| 
C||--3-2-0-3-2-0-0---000-0-0-0-0-0-3-2-0-3-2-0-0---0-0-0-0-0-0-0--| 
                     ... . . . . .                 . . . . . . . 



Verse 
Guitar 1: 
D||----------------------------------------------------| 
A||----------------------------------------------------| 
F||----------3~----------------------------3~----------| 
c||------7~----------------------------7~------7~------| 
G||--5~----------------------------5~--------------5~--| 
C||----------------------------------------------------| 



Pre-Chorus 
Guitar 1: 
D||---------------------------------------------------------------------------| 
A||---------------------------------------------------------------------------| 
F||---------------------------------------------------------------------------| 
c||--8-7-8-7-8-7-8-7-8-7-8-7-8-7-8-7-8----8----8----8----8----8----8----8-----| 
G||------------------------------------10---10---10---10---10---10---10---10--| 
C||---------------------------------------------------------------------------| 
     . . . . . . . . . . . . . . . . . .  . .  . .  . .  . .  . .  . .  . . 

D||-------------------------------------------------------------------| 
A||-------------------------------------------------------------------| 
F||-------------------------------------------------------------------| 
c||--8---8---8---8---8---8---8---8---8---8---8---8---8---8---8---8----| 
G||----8---8---8---8---8---8---8---8---7---7---7---7---7---7---7---7--| 
C||-------------------------------------------------------------------| 
     . . . . . . . . . . . . . . . . . . . . . . . . . . . . . . . . 


Guitar 2: 
D||-------------------------------------------------------------------| 
A||-------------------------------------------------------------------| 
F||-------------------------------------------------------------------| 
c||-------------------------------------------------------------------| 
G||-------------------------------------------------------------------| 
C||--0-0-0-0-0-0-0-0-0-0-0-0-0-0-0-0-8-8-8-8-8-8-8-8-8-8-8-8-8-8-8-8--| 
     . . . . . . . . . . . . . . . . . . . . . . . . . . . . . . . . 


D||-------------------------------------------------------------------| 
A||-------------------------------------------------------------------| 
F||-------------------------------------------------------------------| 
c||-------------------------------------------------------------------| 
G||-------------------------------------------------------------------| 
C||--5-5-5-5-5-5-5-5-5-5-5-5-5-5-5-5-2-2-2-2-2-2-2-2-2-2-2-2-2-2-2-2--| 
     . . . . . . . . . . . . . . . . . . . . . . . . . . . . . . . . 



Guitar 2 (Dub): 
D||--13~--------12~--------10~--------9~--------10~--| 
A||--------------------------------------------------| 
F||--------------------------------------------------| 
c||--------------------------------------------------| 
G||--------------------------------------------------| 
C||--------------------------------------------------| 



Chorus 
Guitar 1: 
D||---------------------------------------------------| 
A||---------------------------------------------------| 
F||---------------------------------------------------| 
c||--12-12-15-12-15-12-12-12-14-12-14-12-12-12-14-12--| 
G||---------------------------------------------------| 
C||---------------------------------------------------| 
     .  .     .     .  .  .     .     .  .  .     . 

D||---------------------------------------------------| 
A||---------------------------------------------------| 
F||---------------------------------------------------| 
c||--------14----14-----------------------------------| 
G||--12-12----12----12-12-12-15-12-12-13-12-12-15-12--| 
C||---------------------------------------------------| 
     .  .     .     .  .  .     .  .     .  .     . 

D||---------------------------------------------------| 
A||---------------------------------------------------| 
F||---------------------------------------------------| 
c||--12-12-15-12-15-12-12-12-14-12-14-12-12-12-14-12--| 
G||---------------------------------------------------| 
C||---------------------------------------------------| 
     .  .     .     .  .  .     .     .  .  .     . 

D||---------------------------------------------------| 
A||---------------------------------------------------| 
F||---------------------------------------------------| 
c||---------------------------------------------------| 
G||--12-12-12-12-12-12-12-12-10-10-10-10-10-10-10-10--| 
C||---------------------------------------------------| 


Guitar 2: 
D||------------------------------------------|------------------------------------------| 
A||------------------------------------------|------------------------------------------| 
F||------------------------------------------|------------------------------------------| 
c||--00-----00---00---0---33333333-55555555--|--00-----00---00---0---33333333-11111111--| 
G||--00-----00---00---0---33333333-55555555--|--00-----00---00---0---33333333-11111111--| 
C||--00-----00---00---0---33333333-55555555--|--00-----00---00---0---33333333-11111111--| 



Guitar 1: 
D||-------------------------------------------|-------------------------------------------| 
A||-------------------------------------------|-------------------------------------------| 
F||--15-----14-----15-----14------------------|--15-----14-----15-----14------------------| 
c||-----0-0----0-0----0-0----0-0-14-15-14-12--|-----0-0----0-0----0-0----0-0-14-15-14-12--| 
G||-------------------------------------------|-------------------------------------------| 
C||-------------------------------------------|-------------------------------------------| 


D||-------------------------------------------------| 
A||-------------------------------------------------| 
F||-------------------------------------------------| 
c||--------12-------12-------15-------12-------15~--| 
G||--13-13----13-13----13-13----13-13----13-13------| 
C||-------------------------------------------------| 
     .  .     .  .     .  .     .  .     .  . 

D||-------------------------------------------------| 
A||-------------------------------------------------| 
F||-------------------------------------------------| 
c||--------12-------12-------10-------10-------10~--| 
G||--10-10----10-10----10-10----10-10----10-10------| 
C||-------------------------------------------------| 
     .  .     .  .     .  .     .  .     .  . 


Guitar 2: 
D||-----------------------------------------------------------------------------------| 
A||-----------------------------------------------------------------------------------| 
F||-----------------------------------------------------------------------------------| 
c||--00--000--000--00000-33--333--333--33333-55--555--555--55555-11--111--111--11111--| 
G||--00--000--000--00000-33--333--333--33333-55--555--555--55555-11--111--111--11111--| 
C||--00--000--000--00000-33--333--333--33333-55--555--555--55555-11--111--111--11111--| 



Breakdown 
Guitar 1: 
D||---------------------------------------| 
A||---------------------------------------| 
F||---------------------------------------| 
c||------------------------6--------------| 
G||----------6----------------------------| 
C||--0-3-2-0-------0-3-2-0-------0-3-2-0--| 


Guitar 1/2: 
D||---------------------------------| 
A||---------------------------------| 
F||---------------------------------| 
c||------------------------6---0-0--| 
G||----------6-----------------0-0--| 
C||--0-3-2-0-------0-3-2-0-----0-0--| 
                               . . 


D||---------------------------------------|-----------------------------------| 
A||---------------------------------------|-----------------------------------| 
F||---------------------------------------|-----------------------------------| 
c||------------------------6--------------|------------------------6---00000--| x2 
G||----------6----------------------------|----------6-----------------00000--| 
C||--0-3-2-0-------0-3-2-0-------0-3-2-0--|--0-3-2-0-------0-3-2-0-----00000--| 
                                                                       ..... 


Interlude 
Guitar 1: 
D||-------------------------------------------------| 
A||-------------------------------------------------| 
F||-------------------------------------------------| 
c||--12-12-15-12-15-12-12-12-14-12-14-12-12-12-14~--| 
G||-------------------------------------------------| 
C||-------------------------------------------------| 
     .  .     .     .  .  .     .     .  .  . 

Guitar 2: 
D||----------------------| 
A||----------------------| 
F||----------------------| 
c||--00-----00---00---0--| 
G||--00-----00---00---0--| 
C||--00-----00---00---0--| 



Chorus 
Guitar 1: 
D||---------------------------------------------------| 
A||---------------------------------------------------| 
F||---------------------------------------------------| 
c||--12-12-15-12-15-12-12-12-14-12-14-12-12-12-14-12--| 
G||---------------------------------------------------| 
C||---------------------------------------------------| 
     .  .     .     .  .  .     .     .  .  .     . 

D||---------------------------------------------------| 
A||---------------------------------------------------| 
F||---------------------------------------------------| 
c||--------14----14-----------------------------------| 
G||--12-12----12----12-12-12-15-12-12-13-12-12-15-12--| 
C||---------------------------------------------------| 
     .  .     .     .  .  .     .  .     .  .     . 

D||---------------------------------------------------| 
A||---------------------------------------------------| 
F||---------------------------------------------------| 
c||--12-12-15-12-15-12-12-12-14-12-14-12-12-12-14-12--| 
G||---------------------------------------------------| 
C||---------------------------------------------------| 
     .  .     .     .  .  .     .     .  .  .     . 

D||---------------------------------------------------| 
A||---------------------------------------------------| 
F||---------------------------------------------------| 
c||---------------------------------------------------| 
G||--12-12-12-12-12-12-12-12-10-10-10-10-10-10-10-10--| 
C||---------------------------------------------------| 


Guitar 2: 
D||------------------------------------------|------------------------------------------| 
A||------------------------------------------|------------------------------------------| 
F||------------------------------------------|------------------------------------------| 
c||--00-----00---00---0---33333333-55555555--|--00-----00---00---0---33333333-11111111--| 
G||--00-----00---00---0---33333333-55555555--|--00-----00---00---0---33333333-11111111--| 
C||--00-----00---00---0---33333333-55555555--|--00-----00---00---0---33333333-11111111--| 



Guitar 1: 
D||-------------------------------------------|-------------------------------------------| 
A||-------------------------------------------|-------------------------------------------| 
F||--15-----14-----15-----14------------------|--15-----14-----15-----14------------------| 
c||-----0-0----0-0----0-0----0-0-14-15-14-12--|-----0-0----0-0----0-0----0-0-14-15-14-12--| 
G||-------------------------------------------|-------------------------------------------| 
C||-------------------------------------------|-------------------------------------------| 


D||-------------------------------------------------| 
A||-------------------------------------------------| 
F||-------------------------------------------------| 
c||--------12-------12-------15-------12-------15~--| 
G||--13-13----13-13----13-13----13-13----13-13------| 
C||-------------------------------------------------| 
     .  .     .  .     .  .     .  .     .  . 

D||-------------------------------------------------| 
A||-------------------------------------------------| 
F||-------------------------------------------------| 
c||--------12-------12-------10-------10-------10~--| 
G||--10-10----10-10----10-10----10-10----10-10------| 
C||-------------------------------------------------| 
     .  .     .  .     .  .     .  .     .  . 


Guitar 2: 
D||-----------------------------------------------------------------------------------| 
A||-----------------------------------------------------------------------------------| 
F||-----------------------------------------------------------------------------------| 
c||--00--000--000--00000-33--333--333--33333-55--555--555--55555-11--111--111--11111--| 
G||--00--000--000--00000-33--333--333--33333-55--555--555--55555-11--111--111--11111--| 
C||--00--000--000--00000-33--333--333--33333-55--555--555--55555-11--111--111--11111--| 



Bridge 
Guitar 1: 
D||-------------------------------------------------------------------| 
A||-------------------------------------------------------------------| 
F||--1414141414141414141414141414141415151515151515151515151515151515-| 
C||--0-0-0-0-0-0-0-0-0-0-0-0-0-0-0-0-0-0-0-0-0-0-0-0-0-0-0-0-0-0-0-0--| 
G||-------------------------------------------------------------------| 
C||-------------------------------------------------------------------| 

D||-------------------------------------------------------------------| 
A||-------------------------------------------------------------------| 
F||--1212121212121212121212121212121210101010101010109-9-9-9-9-9-9-9--| 
C||--0-0-0-0-0-0-0-0-0-0-0-0-0-0-0-0-0-0-0-0-0-0-0-0-0-0-0-0-0-0-0-0--| 
G||-------------------------------------------------------------------| 
C||-------------------------------------------------------------------| 


Guitar 2: 
D||---------------------------------------------------------------| 
A||---------------------------------------------------------------| 
F||---------------------------------------------------------------| 
c||------------------000-0-0-0-0-0-----------------0-0-0-0-0-0-0--| x2 
G||------------------000-0-0-0-0-0-----------------0-0-0-0-0-0-0--| 
C||--3-2-0-3-2-0-0---000-0-0-0-0-0-3-2-0-3-2-0-0---0-0-0-0-0-0-0--| 
                     ... . . . . .                 . . . . . . . 


Outro 
Guitar 1/2: 
D||-------------------------------------------------------------| 
A||-------------------------------------------------------------| 
F||-------------------------------------------------------------| 
c||-------------------------------------------------------------| 
G||-------------------------------------------------------------| 
C||--3-2-0---3-2---0---3-2---3-2-0-3-2-0---3-2---0---3-2---3-2--| 


D||--------------------------------------------------| 
A||--------------------------------------------------| 
F||--------------------------------------------------| 
c||----------------------------------------------0~--| 
G||----------------------------------------------0~--| 
C||--3-2-0---3-2---0---3-2---3-2-0-3-2-0---3-2---0~--| 
                                                 . 




Tablature Legend 
---------------- 
 h   hammer-on 
 p   pull-off 
 b   bend 
 pb  pre-bend 
 r   release bend 
 ~   hold / vibrato 
 .   palm mute 
 /   slide up 
 \   slide down 
 *   pinch harmonic 
 '   natural harmonic 
 x   mute note 
 T   tap 
share this page

See Also: