E-Chords
Before Their Eyes

Lies(Tabs)

Before Their Eyes

roll up this ad to continue

Tuning: C G  C  F  A D 

Intro: 
|--------------------------------------------------------------------| 
|--------------------------------------------------------------------| 
|---------10-10-10----------10-10-10----------9-9-9---------9-10-10--| 
|---------10-10-10----------10-10-10----------9-9-9---------9-10-10--| 
|---------8--8--8------------8--8--8----------7-7-7---------7-8--8---| 
|-0-0-0-0-----------0-0-0-0-----------0-0-0-0-------0-0-0-0----------| 
  
                                                                        
|--------------------------------------------------------------------| 
|--------------------------------------------------------------------| 
|---------7-7-7---------7-7-7--9-9-9-9-9-9-9-9-10-10-10-10-5-5-7-7---| 
|---------7-7-7---------7-7-7--9-9-9-9-9-9-9-9-10-10-10-10-5-5-7-7---|  x2 
|---------5-5-5---------5-5-5--7-7-7-7-7-7-7-7-8--8--8--8--3-3-5-5---|   
|-8-8-8-8-------8-8-8-8----------------------------------------------|   

Verse guitar 1: 
|--------------------------------------------------------------------| 
|-15----15----15----15----14----14----18----17-----------------------| 
|--------------------------------------------------------------------| 
|----12----12----12----12----11----11----15----14--------------------| 
|--------------------------------------------------------------------| 
|--------------------------------------------------------------------| 

|--------------------------------------------------------------------| 
|-15----15----15----15----14----14-----17---18-----------------------| 
|--------------------------------------------------------------------| 
|----12----12----12----12----11----11--------------------------------|  x2 
|--------------------------------------------------------------------| 
|--------------------------------------------------------------------| 

Verse guitar 2: 
|--------------------------------------------------------------------| 
|--------------------------------------------------------------------| 
|--------------------------------------------------------------------| 
|-0~-----\\\\\--/8-7-5\3p0~---7\5-8-7-5\3p0~-------------------------| 
|-0~-----\\\\\-------------------------------------------------------| 
|-0~-----\\\\\-------------------------------------------------------| 

Pre-chorus: 
|--------------------------------------------------------------------| 
|--------------------------------------------------------------------| 
|--------------------------------------------------------------------| 
|--------------------------------------------------------------------| 
|-0--0-0-0--0-0--0-0-0--0-0-0-0-0-0-0-0-0----------------------------| 
|-0--0-0-0--0-0--0-0-0--0-0-0-0-0-0-0-0-0----------------------------| 
  .  . . .  . .  . . .  . . . . . . . . . 

Chorus: 
|--------------------------------------------------------------------| 
|--------------------------------------------------------------------| 
|-7---10---9---5---3-------------------------------------------------| 
|-7---10---9---5---3---5---8---3---2---------------------------------| x2 
|-5---8----7---3---1---5---8---3---2---------------------------------| 
|----------------------5---8---3---2---------------------------------| 
 x16  x8  x4  x4  x16  x8  x4  x2  x2 

Pre-verse: 
|--------------------------------------------------------------------| 
|--------------------------------------------------------------------| 
|---------10-10-10----------10-10-10----------9-9-9---------9-10-10--| 
|---------10-10-10----------10-10-10----------9-9-9---------9-10-10--| 
|---------8--8--8------------8--8--8----------7-7-7---------7-8--8---| 
|-0-0-0-0-----------0-0-0-0-----------0-0-0-0-------0-0-0-0----------| 
   
                                                                       
|--------------------------------------------------------------------| 
|--------------------------------------------------------------------| 
|---------7-7-7---------7-7-7--9-9-9-9-9-9-9-9-10-10-10-10-5-5-7-7---| 
|---------7-7-7---------7-7-7--9-9-9-9-9-9-9-9-10-10-10-10-5-5-7-7---| 
|---------5-5-5---------5-5-5--7-7-7-7-7-7-7-7-8--8--8--8--3-3-5-5---|   
|-8-8-8-8-------8-8-8-8----------------------------------------------|   

Verse guitar 1: 
|--------------------------------------------------------------------| 
|-15----15----15----15----14----14----18----17-----------------------| 
|--------------------------------------------------------------------| 
|----12----12----12----12----11----11----15----14--------------------| 
|--------------------------------------------------------------------| 
|--------------------------------------------------------------------| 

|--------------------------------------------------------------------| 
|-15----15----15----15----14----14-----17---18-----------------------| 
|--------------------------------------------------------------------| 
|----12----12----12----12----11----11--------------------------------|  x2 
|--------------------------------------------------------------------| 
|--------------------------------------------------------------------| 

Verse guitar 2: 
|--------------------------------------------------------------------| 
|--------------------------------------------------------------------| 
|--------------------------------------------------------------------| 
|-0~-----\\\\\--/8-7-5\3p0~---7\5-8-7-5\3p0~-------------------------| 
|-0~-----\\\\\-------------------------------------------------------| 
|-0~-----\\\\\-------------------------------------------------------| 

Pre-chorus: 
|--------------------------------------------------------------------| 
|--------------------------------------------------------------------| 
|--------------------------------------------------------------------| 
|--------------------------------------------------------------------| 
|-0--0-0-0--0-0--0-0-0--0-0-0-0-0-0-0-0-0----------------------------| 
|-0--0-0-0--0-0--0-0-0--0-0-0-0-0-0-0-0-0----------------------------| 
  .  . . .  . .  . . .  . . . . . . . . . 

Chorus: 
|--------------------------------------------------------------------| 
|--------------------------------------------------------------------| 
|-7---10---9---5---3-------------------------------------------------| 
|-7---10---9---5---3---5---8---3---2---------------------------------| x2 
|-5---8----7---3---1---5---8---3---2---------------------------------| 
|----------------------5---8---3---2---------------------------------| 
 x16  x8  x4  x4  x16  x8  x4  x2  x2 

Bridge: 
|--------------------------------------------------------------------| 
|--------------------------------------------------------------------| 
|-7----3-------------------------------------------------------------| 
|-7----3-------------------------------------------------------------| x2 
|-5----1-----------------------------------------5-------------------| 
|----------0-0--0-0--00000-0---0-0--0-0--00000-0---7-8-5-------------| 
 x16  x16  . .  . .  ..... .   . .  . .  ..... . 

|------------| 
|------------| 
|-7----3---2-| 
|-7----3---2-| 
|-5----1---0-| 
|------------| 
 x16  x8  x1 

Chorus: 
|--------------------------------------------------------------------| 
|--------------------------------------------------------------------| 
|---------10-10-10---------10-10-10---------10-10-10--------10-10-10-| 
|---------10-10-10---------10-10-10---------10-10-10--------10-10-10-| 
|---------8--8--8----------8--8--8----------8--8--8---------8--8--8--| 
|-0-0-0-0------------0-0-0----------0-0-0-0-----------0-0-0----------| 

|--------------------------------------------------------------------| 
|--------------------------------------------------------------------| 
|-3--------------------7----10--9---5---3----------------------------| 
|-3----5---8---3---2---7----10--9---5---3----5---8---3---2-----------| 
|-1----5---8---3---2---5----8---7---3---1----5---8---3---2-----------| 
|------5---8---3---2-------------------------5---8---3---2-----------| 
 x16   x8  x4  x2  x2 x16  x8  x4  x4  x16   x8  x4  x2  x2 

Outro: 

|--------------------------------------------------------------------| 
|--------------------------------------------------------------------| 
|---------10-10-10----------10-10-10----------9-9-9---------9-10-10--| 
|---------10-10-10----------10-10-10----------9-9-9---------9-10-10--| 
|---------8--8--8------------8--8--8----------7-7-7---------7-8--8---| 
|-0-0-0-0-----------0-0-0-0-----------0-0-0-0-------0-0-0-0----------| 
     
                                                                     
|--------------------------------------------------------------------| 
|--------------------------------------------------------------------| 
|---------7-7-7---------7-7-7--9-9-9-9-9-9-9-9-10-10-10-10-5-5-7-7---| 
|---------7-7-7---------7-7-7--9-9-9-9-9-9-9-9-10-10-10-10-5-5-7-7---| 
|---------5-5-5---------5-5-5--7-7-7-7-7-7-7-7-8--8--8--8--3-3-5-5---|   
|-8-8-8-8-------8-8-8-8----------------------------------------------|  

|--------------------------------------------------------------------| 
|--------------------------------------------------------------------| 
|--------------------------------------------------------------------| 
|--------------------------------------------------------------------| 
|---------------------------------------5----------------------------| 
|-0-0--0-0--00000-0---0-0--0-0--00000-0---7-8-5-0~-------------------| 
  . .  . .  ..... .   . .  . .  ..... . 
share this page

See Also: