E-Chords
Before Their Eyes

Find(Tabs)

Before Their Eyes

roll up this ad to continue

Key: C

Intro 
Guitar 1: 
D||--------------------------------------------------------------------------------------| 
A||--------------------------------------------------------------------------------------| 
F||--7-7-7-10-10-10-12-12-12-14-14-14-14-14-14-14-7-7-7-10-10-10-12-12-12-9-9-9-9-9-9-9--| 
C||--x-x-x-x--x--x--x--x--x--x--x--x--x--x--x--x--x-x-x-x--x--x--x--x--x--x-x-x-x-x-x-x--| 
G||--5-5-5-8--8--8--10-10-10-12-12-12-12-12-12-12-5-5-5-8--8--8--10-10-10-7-7-7-7-7-7-7--| 
C||--------------------------------------------------------------------------------------| 


D||-----------------------------------------------------------------------------------| 
A||-----------------------------------------------------------------------------------| 
F||--7-7-7-10-10-10-12-12-12-14-14-14-14-14-14-14-7-7-7-10-10-10-8-8-8-8-8-8-8-8-8-8--| 
C||--x-x-x-x--x--x--x--x--x--x--x--x--x--x--x--x--x-x-x-x--x--x--x-x-x-x-x-x-x-x-x-x--| 
G||--5-5-5-8--8--8--10-10-10-12-12-12-12-12-12-12-5-5-5-8--8--8--6-6-6-6-6-6-6-6-6-6--| 
C||-----------------------------------------------------------------------------------| 


Guitar 2: 
D||-------------------------------------------------------------------| 
A||-------------------------------------------------------------------| 
F||-------------------------------------------------------------------| 
C||-------------------------------------------------------------------| 
G||-------------------------------------------------------------------| 
C||--0-0-0-3-3-3-5-5-5-7-7-7-7-7-7-7-0-0-0-3-3-3-5-5-5-2-2-2-2-2-2-2--| 


D||-------------------------------------------------------------------| 
A||-------------------------------------------------------------------| 
F||-------------------------------------------------------------------| 
C||-------------------------------------------------------------------| 
G||-------------------------------------------------------------------| 
C||--0-0-0-3-3-3-5-5-5-7-7-7-7-7-7-7-0-0-0-3-3-3-1-1-1-1-1-1-1-1-1-1--| 



Verse 
Guitar 1: 
D||------| 
A||------| 
F||--7~--| 
C||--x---| 
G||--5~--| 
C||------| 


Guitar 2: 
D||------| 
A||------| 
F||------| 
C||--0~--| 
G||--0~--| 
C||--0~--| 



Pre-Chorus 
Guitar 1 (Left): 
D||--------------------------------------------------| 
A||------------------------8~------------8~----------| 
F||----------5~-----------------5~------------5~-----| 
C||-------7~-----------------------7~------------7~--| 
G||--5~----------------------------------------------| 
C||--------------------------------------------------| 


D||--------------------------------------------------| 
A||------------------------8~------------8~----------| 
F||----------5~-----------------5~------------5~-----| 
C||-------7~-----------------------7~------------7~--| 
G||--5~----------------------------------------------| 
C||--------------------------------------------------| 


Guitar 2 (Right): 
D||----------0~----0~--------------------------------| 
A||-------------6~-----------------------------------| 
F||--------------------------------------------------| 
C||-------7~-----------------------------------------| 
G||--------------------------------------------------| 
C||--------------------------------------------------| 


D||----------0~----0~--------------------0~----------| 
A||-------------6~---------6~------------------------| 
F||--------------------------------------------------| 
C||-------7~-----------------------------------------| 
G||--------------------------------------------------| 
C||--------------------------------------------------| 



Chorus 
Guitar 1: 
D||---------------------------------------------------------------------------------| 
A||--10------------13---------------------------------------------------------------| 
F||---------10------------10-----12---12-------12---12-----10---10-12---12----------| 
C||-----0-0----0-0----0-0----0-0----0----0-0-0----0----0-0----0-------0----0-10-12--| 
G||---------------------------------------------------------------------------------| 
C||---------------------------------------------------------------------------------| 
                                           . .    .    . .    .       .    . 


D||------------------------------------------------------------------------------------------| 
A||--10------------13--------------------------------10-10-10-11-11-11-----------------------| 
F||---------10------------10-----12-12-12---------------------------------------10-10--------| 
C||-----0-0----0-0----0-0----0-0----------0-12-12-12-------------------13-13-13-------12-12--| 
G||------------------------------------------------------------------------------------------| 
C||------------------------------------------------------------------------------------------| 


Guitar 2: 
D||-------------------------------------------------------------------| 
A||-------------------------------------------------------------------| 
F||-------------------------------------------------------------------| 
C||--0-0-0-0-0-0-0-0-3-3-3-3-3-3-3-3-8-8-8-8-8-8-8-8-8-8-8-8-8-8-8-8--| 
G||--0-0-0-0-0-0-0-0-3-3-3-3-3-3-3-3-8-8-8-8-8-8-8-8-8-8-8-8-8-8-8-8--| 
C||--0-0-0-0-0-0-0-0-3-3-3-3-3-3-3-3-8-8-8-8-8-8-8-8-8-8-8-8-8-8-8-8--| 


D||-------------------------------------------------------------------| 
A||-------------------------------------------------------------------| 
F||-------------------------------------------------------------------| 
C||--0-0-0-0-0-0-0-0-3-3-3-3-3-3-3-3-1-1-1-1-1-1-1-1-1-1-1-1-1-1-1-1--| 
G||--0-0-0-0-0-0-0-0-3-3-3-3-3-3-3-3-1-1-1-1-1-1-1-1-1-1-1-1-1-1-1-1--| 
C||--0-0-0-0-0-0-0-0-3-3-3-3-3-3-3-3-1-1-1-1-1-1-1-1-1-1-1-1-1-1-1-1--| 



Pre-Verse 
Guitar 1: 
D||--------------------------------------------------------------------------------------| 
A||--------------------------------------------------------------------------------------| 
F||--7-7-7-10-10-10-12-12-12-14-14-14-14-14-14-14-7-7-7-10-10-10-12-12-12-9-9-9-9-9-9-9--| 
C||--x-x-x-x--x--x--x--x--x--x--x--x--x--x--x--x--x-x-x-x--x--x--x--x--x--x-x-x-x-x-x-x--| 
G||--5-5-5-8--8--8--10-10-10-12-12-12-12-12-12-12-5-5-5-8--8--8--10-10-10-7-7-7-7-7-7-7--| 
C||--------------------------------------------------------------------------------------| 


D||-----------------------------------------------------------------------------------| 
A||-----------------------------------------------------------------------------------| 
F||--7-7-7-10-10-10-12-12-12-14-14-14-14-14-14-14-7-7-7-10-10-10-8-8-8-8-8-8-8-8-8-8--| 
C||--x-x-x-x--x--x--x--x--x--x--x--x--x--x--x--x--x-x-x-x--x--x--x-x-x-x-x-x-x-x-x-x--| 
G||--5-5-5-8--8--8--10-10-10-12-12-12-12-12-12-12-5-5-5-8--8--8--6-6-6-6-6-6-6-6-6-6--| 
C||-----------------------------------------------------------------------------------| 


Guitar 2: 
D||-------------------------------------------------------------------| 
A||-------------------------------------------------------------------| 
F||-------------------------------------------------------------------| 
C||-------------------------------------------------------------------| 
G||-------------------------------------------------------------------| 
C||--0-0-0-3-3-3-5-5-5-7-7-7-7-7-7-7-0-0-0-3-3-3-5-5-5-2-2-2-2-2-2-2--| 


D||-------------------------------------------------------------------| 
A||-------------------------------------------------------------------| 
F||-------------------------------------------------------------------| 
C||-------------------------------------------------------------------| 
G||-------------------------------------------------------------------| 
C||--0-0-0-3-3-3-5-5-5-7-7-7-7-7-7-7-0-0-0-3-3-3-1-1-1-1-1-1-1-1-1-1--| 



Verse 
Guitar 1: 
D||------| 
A||------| 
F||--7~--| 
C||--x---| 
G||--5~--| 
C||------| 


Guitar 2: 
D||------| 
A||------| 
F||------| 
C||--0~--| 
G||--0~--| 
C||--0~--| 



Pre-Chorus 
Guitar 1 (Left): 
D||--------------------------------------------------| 
A||------------------------8~------------8~----------| 
F||----------5~-----------------5~------------5~-----| 
C||-------7~-----------------------7~------------7~--| 
G||--5~----------------------------------------------| 
C||--------------------------------------------------| 


D||--------------------------------------------------| 
A||------------------------8~------------8~----------| 
F||----------5~-----------------5~------------5~-----| 
C||-------7~-----------------------7~------------7~--| 
G||--5~----------------------------------------------| 
C||--------------------------------------------------| 


D||-------0~-------| 
A||------------6~--| 
F||----------------| 
C||--7~------------| 
G||----------------| 
C||----------------| 


Guitar 2 (Right): 
D||-------------------------------------------------------------------| 
A||-------------------------------------------------------------------| 
F||-------------------------------------------------------------------| 
C||-------------------------------------------------------------------| 
G||--5~--5-5-5-5-5-5-5-5-5-5-5-5-5-5-8~--8-8-8-8-8-8-7~--7-7-7-7-7-7--| 
C||-------------------------------------------------------------------| 
         . . . . . . . . . . . . . .     . . . . . .     . . . . . . 

D||---------------------------------------------------------------------| 
A||---------------------------------------------------------------------| 
F||---------------------------------------------------------------------| 
C||---------------------------------------------------------------------| 
G||--5~--5-5-5-5-5-5-5-5-5-5-5-5-5-5-8~--8-8-8-8-8-8-3~--3-3-3-3-3-3-3--| 
C||---------------------------------------------------------------------| 
         . . . . . . . . . . . . . .     . . . . . .     . . . . . . . 

D||------| 
A||------| 
F||------| 
C||------| 
G||--5~--| 
C||------| 



Chorus 
Guitar 1: 
D||---------------------------------------------------------------------------------| 
A||--10------------13---------------------------------------------------------------| 
F||---------10------------10-----12---12-------12---12-----10---10-12---12----------| 
C||-----0-0----0-0----0-0----0-0----0----0-0-0----0----0-0----0-------0----0-10-12--| 
G||---------------------------------------------------------------------------------| 
C||---------------------------------------------------------------------------------| 
                                           . .    .    . .    .       .    . 


D||------------------------------------------------------------------------------------------| 
A||--10------------13--------------------------------10-10-10-11-11-11-----------------------| 
F||---------10------------10-----12-12-12---------------------------------------10-10--------| 
C||-----0-0----0-0----0-0----0-0----------0-12-12-12-------------------13-13-13-------12-12--| x2 
G||------------------------------------------------------------------------------------------| 
C||------------------------------------------------------------------------------------------| 


Guitar 2: 
D||-------------------------------------------------------------------| 
A||-------------------------------------------------------------------| 
F||-------------------------------------------------------------------| 
C||--0-0-0-0-0-0-0-0-3-3-3-3-3-3-3-3-8-8-8-8-8-8-8-8-8-8-8-8-8-8-8-8--| 
G||--0-0-0-0-0-0-0-0-3-3-3-3-3-3-3-3-8-8-8-8-8-8-8-8-8-8-8-8-8-8-8-8--| 
C||--0-0-0-0-0-0-0-0-3-3-3-3-3-3-3-3-8-8-8-8-8-8-8-8-8-8-8-8-8-8-8-8--| 


D||-------------------------------------------------------------------| 
A||-------------------------------------------------------------------| 
F||-------------------------------------------------------------------| 
C||--0-0-0-0-0-0-0-0-3-3-3-3-3-3-3-3-1-1-1-1-1-1-1-1-1-1-1-1-1-1-1-1--| x2 
G||--0-0-0-0-0-0-0-0-3-3-3-3-3-3-3-3-1-1-1-1-1-1-1-1-1-1-1-1-1-1-1-1--| 
C||--0-0-0-0-0-0-0-0-3-3-3-3-3-3-3-3-1-1-1-1-1-1-1-1-1-1-1-1-1-1-1-1--| 



Pre-Verse 
Guitar 1: 
D||--------------------------------------------------------------------------------------| 
A||--------------------------------------------------------------------------------------| 
F||--7-7-7-10-10-10-12-12-12-14-14-14-14-14-14-14-7-7-7-10-10-10-12-12-12-9-9-9-9-9-9-9--| 
C||--x-x-x-x--x--x--x--x--x--x--x--x--x--x--x--x--x-x-x-x--x--x--x--x--x--x-x-x-x-x-x-x--| 
G||--5-5-5-8--8--8--10-10-10-12-12-12-12-12-12-12-5-5-5-8--8--8--10-10-10-7-7-7-7-7-7-7--| 
C||--------------------------------------------------------------------------------------| 


D||-----------------------------------------------------------------------------------| 
A||-----------------------------------------------------------------------------------| 
F||--7-7-7-10-10-10-12-12-12-14-14-14-14-14-14-14-7-7-7-10-10-10-8-8-8-8-8-8-8-8-8-8--| 
C||--x-x-x-x--x--x--x--x--x--x--x--x--x--x--x--x--x-x-x-x--x--x--x-x-x-x-x-x-x-x-x-x--| 
G||--5-5-5-8--8--8--10-10-10-12-12-12-12-12-12-12-5-5-5-8--8--8--6-6-6-6-6-6-6-6-6-6--| 
C||-----------------------------------------------------------------------------------| 


Guitar 2: 
D||-------------------------------------------------------------------| 
A||-------------------------------------------------------------------| 
F||-------------------------------------------------------------------| 
C||-------------------------------------------------------------------| 
G||-------------------------------------------------------------------| 
C||--0-0-0-3-3-3-5-5-5-7-7-7-7-7-7-7-0-0-0-3-3-3-5-5-5-2-2-2-2-2-2-2--| 


D||-------------------------------------------------------------------| 
A||-------------------------------------------------------------------| 
F||-------------------------------------------------------------------| 
C||-------------------------------------------------------------------| 
G||-------------------------------------------------------------------| 
C||--0-0-0-3-3-3-5-5-5-7-7-7-7-7-7-7-0-0-0-3-3-3-1-1-1-1-1-1-1-1-1-1--| 



Breakdown 
Guitar 1: 
D||-------------------------------------------------| 
A||-------------------------------------------------| 
F||-------------------------------------------------| 
C||--0---0---0-0---0-------000---0---000---000---0--| 
G||--0---0---0-0---0-------000---0---000---000---0--| 
C||--0---0---0-0---0-------000---0---000---000---0--| 
     .   .   . .   .       ...   .   ...   ...   . 



Guitar 1/2: 
D||-------------------------------------------------| 
A||-------------------------------------------------| 
F||-------------------------------------------------| 
C||--0---0---0-0---0-------000---0---000---000---0--| x2 
G||--0---0---0-0---0-------000---0---000---000---0--| 
C||--0---0---0-0---0-------000---0---000---000---0--| 
     .   .   . .   .       ...   .   ...   ...   . 

D||--------------------------------------------------| 
A||--------------------------------------------------| 
F||--------------------------------------------------| 
C||--1~--1~--1-1~--1~------111~--1~--111~--111~--1~--| 
G||--0~--0~--0-0~--0~------000~--0~--000~--000~--0~--| 
C||--1~--1~--1-1~--1~------111~--1~--111~--111~--1~--| 
     .   .   . .   .       ...   .   ...   ...   . 



Guitar 1: 
D||-------------------------------------------------| 
A||-------------------------------------------------| 
F||-------------------------------------------------| 
C||--0---0---0-0---0-------000---0---000---000---0--| 
G||--0---0---0-0---0-------000---0---000---000---0--| 
C||--0---0---0-0---0-------000---0---000---000---0--| 
     .   .   . .   .       ...   .   ...   ...   . 


Guitar 2: 
D||-------------------------------------------------------------------| 
A||-------------------------------------------------------------------| 
F||-------------------------------------------------------------------| 
C||--0-0-0-0-0-0-0-0-0-0-0-0-0-0-0-0-0-0-0-0-0-0-0-0-0-0-0-0-0-0-0-0--| 
G||--0-0-0-0-0-0-0-0-0-0-0-0-0-0-0-0-0-0-0-0-0-0-0-0-0-0-0-0-0-0-0-0--| 
C||--0-0-0-0-0-0-0-0-0-0-0-0-0-0-0-0-0-0-0-0-0-0-0-0-0-0-0-0-0-0-0-0--| 
     . . . . . . . . . . . . . . . . . . . . . . . . . . . . . . . . 



Bridge 
Guitar : 
D||----------------| 
A||----------------| 
F||----------------| 
C||--0~--------3~--| 
G||--0~--------3~--| 
C||--0~--------3~--| 



Chorus 
Guitar 1: 
D||-------------------------------------------| 
A||-------------------------------------------| 
F||------12---12-----10---10-12---12----------| 
C||--0-0----0----0-0----0-------0----0-10-12--| 
G||-------------------------------------------| 
C||-------------------------------------------| 
     . .    .    . .    .       .    . 


D||------------------------------------------------------------------------------------------| 
A||--10------------13--------------------------------10-10-10-11-11-11-----------------------| 
F||---------10------------10-----12-12-12---------------------------------------10-10--------| 
C||-----0-0----0-0----0-0----0-0----------0-12-12-12-------------------13-13-13-------12-12--| 
G||------------------------------------------------------------------------------------------| 
C||------------------------------------------------------------------------------------------| 


Guitar 2: 
D||-----------------------------------| 
A||-----------------------------------| 
F||-----------------------------------| 
C||--8-8-8-8-8-8-8-8-8-8-8-8-8-8-8-8--| 
G||--8-8-8-8-8-8-8-8-8-8-8-8-8-8-8-8--| 
C||--8-8-8-8-8-8-8-8-8-8-8-8-8-8-8-8--| 


D||-------------------------------------------------------------------| 
A||-------------------------------------------------------------------| 
F||-------------------------------------------------------------------| 
C||--0-0-0-0-0-0-0-0-3-3-3-3-3-3-3-3-1-1-1-1-1-1-1-1-1-1-1-1-1-1-1-1--| 
G||--0-0-0-0-0-0-0-0-3-3-3-3-3-3-3-3-1-1-1-1-1-1-1-1-1-1-1-1-1-1-1-1--| 
C||--0-0-0-0-0-0-0-0-3-3-3-3-3-3-3-3-1-1-1-1-1-1-1-1-1-1-1-1-1-1-1-1--| 



Guitar 1: 
D||---------------------------------------------------------------------------------| 
A||--10------------13---------------------------------------------------------------| 
F||---------10------------10-----12---12-------12---12-----10---10-12---12----------| 
C||-----0-0----0-0----0-0----0-0----0----0-0-0----0----0-0----0-------0----0-10-12--| 
G||---------------------------------------------------------------------------------| 
C||---------------------------------------------------------------------------------| 
                                           . .    .    . .    .       .    . 


D||------------------------------------------------------------------------------------------| 
A||--10------------13--------------------------------10-10-10-11-11-11-----------------------| 
F||---------10------------10-----12-12-12---------------------------------------10-10--------| 
C||-----0-0----0-0----0-0----0-0----------0-12-12-12-------------------13-13-13-------12-12--| 
G||------------------------------------------------------------------------------------------| 
C||------------------------------------------------------------------------------------------| 


Guitar 2: 
D||-------------------------------------------------------------------| 
A||-------------------------------------------------------------------| 
F||-------------------------------------------------------------------| 
C||--0-0-0-0-0-0-0-0-3-3-3-3-3-3-3-3-8-8-8-8-8-8-8-8-8-8-8-8-8-8-8-8--| 
G||--0-0-0-0-0-0-0-0-3-3-3-3-3-3-3-3-8-8-8-8-8-8-8-8-8-8-8-8-8-8-8-8--| 
C||--0-0-0-0-0-0-0-0-3-3-3-3-3-3-3-3-8-8-8-8-8-8-8-8-8-8-8-8-8-8-8-8--| 


D||-------------------------------------------------------------------| 
A||-------------------------------------------------------------------| 
F||-------------------------------------------------------------------| 
C||--0-0-0-0-0-0-0-0-3-3-3-3-3-3-3-3-1-1-1-1-1-1-1-1-1-1-1-1-1-1-1-1--| 
G||--0-0-0-0-0-0-0-0-3-3-3-3-3-3-3-3-1-1-1-1-1-1-1-1-1-1-1-1-1-1-1-1--| 
C||--0-0-0-0-0-0-0-0-3-3-3-3-3-3-3-3-1-1-1-1-1-1-1-1-1-1-1-1-1-1-1-1--| 



Outro 
Guitar 1: 
D||--------------------------------------------------------------------------------------| 
A||--------------------------------------------------------------------------------------| 
F||--7-7-7-10-10-10-12-12-12-14-14-14-14-14-14-14-7-7-7-10-10-10-12-12-12-9-9-9-9-9-9-9--| 
C||--x-x-x-x--x--x--x--x--x--x--x--x--x--x--x--x--x-x-x-x--x--x--x--x--x--x-x-x-x-x-x-x--| 
G||--5-5-5-8--8--8--10-10-10-12-12-12-12-12-12-12-5-5-5-8--8--8--10-10-10-7-7-7-7-7-7-7--| 
C||--------------------------------------------------------------------------------------| 


D||-----------------------------------------------------------------------------------| 
A||-----------------------------------------------------------------------------------| 
F||--7-7-7-10-10-10-12-12-12-14-14-14-14-14-14-14-7-7-7-10-10-10-8-8-8-8-8-8-8-8-8-8--| 
C||--x-x-x-x--x--x--x--x--x--x--x--x--x--x--x--x--x-x-x-x--x--x--x-x-x-x-x-x-x-x-x-x--| 
G||--5-5-5-8--8--8--10-10-10-12-12-12-12-12-12-12-5-5-5-8--8--8--6-6-6-6-6-6-6-6-6-6--| 
C||-----------------------------------------------------------------------------------| 


Guitar 2: 
D||-------------------------------------------------------------------| 
A||-------------------------------------------------------------------| 
F||-------------------------------------------------------------------| 
C||-------------------------------------------------------------------| 
G||-------------------------------------------------------------------| 
C||--0-0-0-3-3-3-5-5-5-7-7-7-7-7-7-7-0-0-0-3-3-3-5-5-5-2-2-2-2-2-2-2--| 


D||-------------------------------------------------------------------| 
A||-------------------------------------------------------------------| 
F||-------------------------------------------------------------------| 
C||-------------------------------------------------------------------| 
G||-------------------------------------------------------------------| 
C||--0-0-0-3-3-3-5-5-5-7-7-7-7-7-7-7-0-0-0-3-3-3-1-1-1-1-1-1-1-1-1-1--| 


Guitar 1/2: 
D||------| 
A||------| 
F||------| 
C||--0~--| 
G||--0~--| 
C||--0~--| 




Tablature Legend 
---------------- 
 h   hammer-on 
 p   pull-off 
 b   bend 
 pb  pre-bend 
 r   release bend 
 ~   hold / vibrato 
 .   palm mute 
 /   slide up 
 \   slide down 
 *   pinch harmonic 
 '   natural harmonic 
 x   mute note 
 T   tap 
share this page

See Also: