E-Chords
Beat Happening

Youth(Tabs)

Beat Happening

Intro 

e------------0----------0-----------| 
b------3-0----0---3-0----0----------| 
g----0-----2----0-----2---   x3-x7--|x4 
d---------------------0-------------| 
a----------3----2-------------------| 
E----3------------------------------| 


Fourth Time/Eighth time: 

e------------0----------0--| 
b------3-0----0---3-0----0-| 
g----0-----2----0-----2----| 
d---------------------2----| 
a----------2----3----------| 
E----3---------------------| 


The intro is then repeated seven times and the added part is played the eight time 

This is played during the middle part without vocals 

e------------0----------0--| 
b------3-0----0---3-0----0-| 
g----0-----2----0-----2----| 
d--------------------------| 
a----------3----------3----| 
E----3----------3----------| 


The intro riff is played another 4 times 


Outro 

e-----------------------------------| 
b------3-0---3-0---3-0---3-0---3-0--| 
g----0-----0-----0-----0-----0----0-| 
d----------------------0------------| 
a----------3-----2------------------| 
E----3-----------------------3------| 

roll up this ad to continue

share this page

See Also: