E-Chords
Beat Happening

Hey Day(Tabs)

Beat Happening

Only two riffs: 

E|------------------------------0------| 
B|------------------------------0------| 
G|------------------------------0------| 
D|------------------------------2------| 
A|------------------------------3------| 
E|---3-3-3-2-2-2-3-3-3-2-2-2----3------| 

Golden hills you climb high 
At the top of the (rim high?) 
(Skip?) jack got a lucky hand 
Livin on the fat of the 

-----0---0---0---0-------| 
-----0---0---0---0-------| 
-----2---0---2---0-------| 
-----2---2---2---2-------| 
-----0---3---0---3-------| 
-----0---3---0---3-------| 

land 
To road travel school 
No golden rule 
No golden rule(...) 

roll up this ad to continue

share this page

See Also: