E-Chords
Beat Crusaders

Lemon Head(Tabs)

Beat Crusaders

roll up this ad to continue

I submitted a guitar-pro 6 version of this before I registered  
for an account. This tab isn't that accurate especially the  
bridge part where the lead guitar in the song isn't  
that clear. Enjoy anyways! 

Intro 1:  
Guitar 1 
e|-----------------------------| 
b|-----------------------------| 
g|-7-77------------------------| repeat 2x 
d|-7-77--7-7-77--4-44--5-5-55--|  
a|-5-55--7-7-77--4-44--5-5-55--| 
e|-------5-5-55--2-22--3-3-33--| 

Intro 2: 
Guitar 1  
e|-----------------------------| 
b|-----------------------------| 
g|-7-77------------------------|  
d|-7-77--7-7-77--4-44--5-5-55--|  
a|-5-55--7-7-77--4-44--5-5-55--| 
e|-------5-5-55--2-22--3-3-33--| 
Guitar 2 
e|-----------------------------| 
b|-----------------------------| 
g|-7-9-11-12-11-9-7-6-6--4-6-7-|  
d|-----------------------------|  
a|-5-7-9--10-9--7-5-4-4--2-4-5-| 
e|-----------------------------| 

Guitar 1 
e|-------------------------| 
b|-------------------------| 
g|-7-77--------------------| 
d|-7-77--7-7-77--44444-5---|  
a|-5-55--7-7-77--44444-5---| 
e|-------5-5-55--22222-3---| 
Guitar 2 
e|---------------------------------| 
b|---------------------------------| 
g|-11-12-14-16-14-12-11-9-9--7-9-11|  
d|---------------------------------|  
a|-9--10-12-14-12-10-9--7-7--5-7-9-| 
e|---------------------------------| 

verse 1: 
Guitar 1  
e|-----------------------------| 
b|-----------------------------| 
g|-7-77------------------------|  
d|-7-77--7-7-77--4-44--5-5-55--|  
a|-5-55--7-7-77--4-44--5-5-55--| 
e|-------5-5-55--2-22--3-3-33--| 
Guitar 2 
e|-----------------------------| 
b|-----------------------------| 
g|-----------------------------|  
d|-----------------------------|  
a|-----------------------------| 
e|-----------------------------| 

Guitar 1  
e|-----------------------------| 
b|-----------------------------| 
g|-7-77------------------------|  
d|-7-77--7-7-77--4-44--5-5-55--|  
a|-5-55--7-7-77--4-44--5-5-55--| 
e|-------5-5-55--2-22--3-3-33--| 
Guitar 2 
e|-14----------------------14-----| 
b|-----15--17------15--17------15-| 
g|-------------14-----------------|  
d|--------------------------------|  
a|--------------------------------| 
e|--------------------------------| 

PreChorus: 
Guitar 1 
e|---------------| 
b|---------------| 
g|-4-------------| 
d|-4-4-5----3x---|  
a|-2-4-5---------| 
e|---2-3---------| 
Guitar 2 
e|-2--------------3--2-----2---------| 
b|----3--------3--------------3------| 
g|-------4-----------------------4---|  
d|-----------------------------------|  
a|-----------------------------------| 
e|-----------------------------------| 

Guitar 1 
e|--------------------| 
b|--------------------| 
g|--------------------| 
d|-7---7---7---7------|  
a|-7---7---7---7------| 
e|-5---5---5---5------| 
Guitar 2 
e|---------------------| 
b|---------------------| 
g|-----6---9---12------| 
d|-7-------------------| 
a|-----4---7---10------| 
e|-5-------------------| 

Chorus: 
Guitar 1  
e|-----------------------------| 
b|-----------------------------| 
g|-7-77------------------------|  
d|-7-77--7-7-77--4-44--5-5-55--|  
a|-5-55--7-7-77--4-44--5-5-55--| 
e|-------5-5-55--2-22--3-3-33--| 
Guitar 2 
e|-----------------------------| 
b|-----------------------------| 
g|-7-9-11-12-11-9-7-6-6--4-6-7-|  
d|-----------------------------|  
a|-5-7-9--10-9--7-5-4-4--2-4-5-| 
e|-----------------------------| 

Guitar 1  
e|-----------------------------| 
b|-----------------------------| 
g|-7-77------------------------|  
d|-7-77--7-7-77--4-44--5-5-55--|  
a|-5-55--7-7-77--4-44--5-5-55--| 
e|-------5-5-55--2-22--3-3-33--| 
Guitar 2 
e|---------------------------------| 
b|---------------------------------| 
g|-11-12-14-16-14-12-11-9-9--7-9-11|  
d|---------------------------------|  
a|-9--10-12-14-12-10-9--7-7--5-7-9-| 
e|---------------------------------| 

Guitar 1 
e|------------|  
b|------------|  
g|------------|  
d|-7---7------|  
a|-7---7------|  
e|-5---5------|  
Guitar 2 
e|----------------|  
b|-5---8--12------|  
g|----------------|  
d|-5---8--12------|   
a|-4---7--11------|  
e|----------------|  

PostChorus: (Repeat Intro) 

verse 2: 
Guitar 1 (repeat that part from the verse) 
Guitar 2 
e|-------------------------14----| 
b|----------------------------15-| 
g|-------------------------------|  
d|-------------------------------|  
a|-------------------------------| 
e|-------------------------------| 

Guitar 1 (repeat that part from the verse) 
Guitar 2 
e|-14----------------14-----14----------14----15----| 
b|----15-17-------17----15-----15-17-------15----17-| 
g|----------14-14--------------------14-------------|  
d|--------------------------------------------------|  
a|--------------------------------------------------| 
e|--------------------------------------------------| 

PreChorus: (repeat this part for both guitars) 

Chorus: (repeat this part for both guitars) 

Bridge: 
Guitar 1  
e|------------------------------------------| 
b|------------------------------------------| 
g|-11-11-11-11-11-11-11-11-6-6-6-6-6-6-6-6--| 
d|-12-12-12-12-12-12-12-12-7-7-7-7-7-7-7-7--| 
a|-10-10-10-10-10-10-10-10-5-5-5-5-5-5-5-5--| 
e|------------------------------------------| 
Guitar 2 
e|------------------------------------| 
b|----------------------7-8-7---------| 
g|------------------7-9---------------|  
d|----------------------------7-9-7---|  
a|------------------------------------| 
e|------------------------------------| 

Guitar 1 
e|----------------------------------------| 
b|----------------------------------------| 
g|-11-11-11-11-11-11-11-11-4-444-5-55555--| 
d|-12-12-12-12-12-12-12-12-4-444-5-55555--| 
a|-10-10-10-10-10-10-10-10-2-222-3-33333--| 
e|----------------------------------------| 
Guitar 2 
e|-------------------------7-------------| 
b|------------------7-8-10---10-8-7-10---| 
g|---------------------------------------|   
d|---------------------------------------|  
a|---------------------------------------| 
e|---------------------------------------| 
(or if its in octave chords...im not sure but you can fix it) 
Guitar 2 
e|----------------------------------------| 
b|------------------7-8-10-12-10-8-7-10---| 
g|----------------------------------------|  
d|------------------4-5-7--9--7--5-4-7----| 
a|----------------------------------------| 
e|----------------------------------------| 

Guitar 1  
e|------------------------------------------| 
b|------------------------------------------| 
g|-11-11-11-11-11-11-11-11-6-6-6-6-6-6-6-6--| 
d|-12-12-12-12-12-12-12-12-7-7-7-7-7-7-7-7--| 
a|-10-10-10-10-10-10-10-10-5-5-5-5-5-5-5-5--| 
e|------------------------------------------| 
Guitar 2 
e|------------------------------------| 
b|----------------------7-8-7-----7---| 
g|------------------7-9-------9-7-----|  
d|------------------------------------|  
a|------------------------------------| 
e|------------------------------------| 

Guitar 1 
e|---------------------| 
b|---------------------| 
g|---------------------| 
d|-2---4---5---7-------|  
a|-2---4---5---7-------| 
e|-0---2---3---5-------| 
Guitar 2 
e|--------7------------------7-----------| 
b|-7-8-10---10-8-7-8--7-8-10---10-8-7----|  
g|------------------------------------9--|  
d|---------------------------------------|  
a|---------------------------------------| 
e|---------------------------------------| 

Break: 
Guitar 1  
e|-----------------------------| 
b|-----------------------------| 
g|-7-77------------------------|  
d|-7-77--7-7-77--4-44--5-5-55--|  
a|-5-55--7-7-77--4-44--5-5-55--| 
e|-------5-5-55--2-22--3-3-33--| 
Guitar 2 
e|--------------------------14-------| 
b|-----------------------------15~~~~| 
g|-----------------------------------|  
d|-----------------------------------|  
a|-----------------------------------| 
e|-----------------------------------| 

Guitar 1  
e|-----------------------------| 
b|-----------------------------| 
g|-7-77------------------------|  
d|-7-77--7-7-77--4-44--5-5-55--|  
a|-5-55--7-7-77--4-44--5-5-55--| 
e|-------5-5-55--2-22--3-3-33--| 
Guitar 2 
e|----------------------| 
b|~~~~~~~~~~~~~~--------| 
g|----------------------| 
d|----------------------| 
a|----------------------| 
e|----------------------| 

Guitar 1  
e|-----------------------------| 
b|-----------------------------| 
g|-7-77------------------------|  
d|-7-77--7-7-77--4-44--5-5-55--|  
a|-5-55--7-7-77--4-44--5-5-55--| 
e|-------5-5-55--2-22--3-3-33--| 
Guitar 2 
e|-------14-15-14----------------14-15-14-----------| 
b|-15-17----------17-15-14-15-17----------17-15-14--| 
g|--------------------------------------------------|  
d|--------------------------------------------------|  
a|--------------------------------------------------| 
e|--------------------------------------------------| 

Guitar 1  
e|-------------------| 
b|-------------------| 
g|-7-77--------------|  
d|-7-77--7-7-77--4---|  
a|-5-55--7-7-77--4---| 
e|-------5-5-55--2---| 
Guitar 2 
e|-------14-15-14----------------14-15-14--------| 
b|-15-17----------17-15-14-15-17----------17-15--| 
g|-----------------------------------------------|  
d|-----------------------------------------------|  
a|-----------------------------------------------| 
e|-----------------------------------------------| 

Chorus: 
Guitar 1  
e|-----------------------------| 
b|-----------------------------| 
g|-7-77------------------------|  
d|-7-77--7-7-77--4-44--5-5-55--|  
a|-5-55--7-7-77--4-44--5-5-55--| 
e|-------5-5-55--2-22--3-3-33--| 
Guitar 2 
e|-----------------------------| 
b|-----------------------------| 
g|-7-9-11-12-11-9-7-6-6--4-6-7-|  
d|-----------------------------|  
a|-5-7-9--10-9--7-5-4-4--2-4-5-| 
e|-----------------------------| 

Guitar 1  
e|-----------------------------| 
b|-----------------------------| 
g|-7-77------------------------|  
d|-7-77--7-7-77--4-44--5-5-55--| 2x 
a|-5-55--7-7-77--4-44--5-5-55--| 
e|-------5-5-55--2-22--3-3-33--| 
Guitar 2 
e|---------------------------------| 
b|---------------------------------| 
g|-11-12-14-16-14-12-11-9-9--7-9-11|  
d|---------------------------------| 2x 
a|-9--10-12-14-12-10-9--7-7--5-7-9-| 
e|---------------------------------| 

Guitar 1 
e|--------------------| 
b|--------------------| 
g|--------------------| 
d|-7---7---7---7------|  
a|-7---7---7---7------| 
e|-5---5---5---5------| 
Guitar 2 
e|--------------9---|  
b|-5---8---12-------|  
g|--------------9---|  
d|-5---8---12---8---|   
a|-4---7---11-------|  
e|------------------|  

Outro: 
Guitar 1 
e|-----------------------------| 
b|-----------------------------| 
g|-7////-----------------------|  
d|-7////-----------------------|  
a|-5////-----------------------| 
e|-----------------------------| 
Guitar 2 
e|-------14-15-14----------------14-15-14----------| 
b|-15-17----------17-15-14-15-17----------17-15-14-| 
g|-------------------------------------------------|  
d|-------------------------------------------------| play this as long as  
a|-------------------------------------------------| long as you want until 
e|-------------------------------------------------| it fades 

Lyrics: 
VERSE 
I don't think there will be squall 
I don't think there will be wrong 
Sometimes you say 

PREChorus 
Everyday's a bad day 
Everything is quite well 
Maybe rainy Sunday 
Fine day, Tuesday 
Everyday's a black day 
No one's gotta blackmail 

I don't know how the weather is fine 
Walking in the sun 
Everyone smiles 

Chorus 
Don't worry 
Let's go out to the place we're getting high 
Nobody 
Gets me stop otherwise you, honey 
Let's go out to the place we're getting high 

BRIDGE 
I don't understand why you hide 
I don't understand why you fear 
I don't understand why you sigh 
You're shining and gleaming 
Everybody wants you right away 

BREAK 
Don't worry 
Let's go out to the place we're getting high 
Nobody 
Gets me stop otherwise you, honey 

LAST Chorus 
Don't worry 
Let's go out to the place we're getting high 
Don't hurry 
Let's go out to the place we're getting high 
Nobody 
Gets me stop otherwise you, honey 
Gets me stop otherwise you, baby 
Let's go out to the place we say good-bye 
share this page

See Also: