E-Chords
Beasts Of Bourbon

I Am Gone(Tabs)

Beasts Of Bourbon

Part 1 

e|--------------------------------------------------------| 
B|--------------------------------------------------------| 
G|------5/7--------------5/7---------5/7---------5/7--5/7-| 
D|-5/7--5/7----5/7--5/7--5/7----5/7--5/7----5/7--5/7--5/7-| 
A|-5/7--3/5----5/7--5/7--3/5----5/7--3/5----5/7--3/5--3/5-| 
E|-3/5---------3/5--3/5---------3/5---------3/5-----------| 

Part 2 

e|--------------------------------------------------------| 
B|--------------------------------------------------------| 
G|--------------------------------------------------------| 
D|-5/7----5/7--5/7----5/7----5/7--5/7---------------------| 
A|-5/7----5/7--5/7----5/7----5/7--5/7---------------------| 
E|-3/5----3/5--3/5----3/5----3/5--3/5---------------------| 

Part 3 

e|--------------------------------------------------------| 
B|--------------------------------------------------------| 
G|------7/9--------------7/9---------5/7---------5/7--5/7-| 
D|-7/9--7/9----7/9--7/9--7/9----5/7--5/7----5/7--5/7--5/7-| 
A|-7/9--5/7----7/9--7/9--5/7----5/7--3/5----5/7--3/5--3/5-| 
E|-5/7---------5/7--5/7---------3/5---------3/5-----------| 

Part 4 

e|---------------------------------------------------------------| 
B|---------------------------------------------------------------| 
G|-55555555--33333333--------------------------------------------| 
D|-55555555--33333333--------------------------------------------| 
A|-77777777--55555555--------------------------------------------| 
E|---------------------------------------------------------------| 




************************************ 

| /  Slide up 

************************************ 

roll up this ad to continue

share this page

See Also: