E-Chords
Bear's Den

Isaac (acoustic)(Tabs)

Bear's Den

Key: D
 
  

Tuning: (D A D F# A d)  


Verse 

D |--------------------------------------------------------------------| 
A |---------0---------------0---------------0---------------2----------| 
F#|-----1-----1---1-----1-----1---1-----1-----1---1-----1-----1---1----| 
D |---2---2-----2-----2---2-----2-----2---2-----2-----0---0-----0------| 
A |-2---------------2---------------3---------------2------------------| 
D |--------------------------------------------------------------------| 
       Isaac I have    never seen you  look so     afraid      with your  
D |--------------------------------------------------------------------| 
A |---------0---------------2---------------0---------------0----------| 
F#|-----0-----0---0-----1-----1---1-----1-----1---1-----0-----0---0----| 
D |---0---0-----0-----0---0-----0-----2---2-----2-----0---0-----0------| 
A |-0---------------2---------------3---------------0------------------| 
D |--------------------------------------------------------------------| 
       head pressed so hard against the stone 


Bridge 

 (You can make this as long or short as you like.) 
D |----------------------------0---------------0-----------------------| 
A |---------0--------------------0---0-----0-----0---0-----------------| 
F#|-----0-----0---0-X4-----1-------1-----1---1-----1---X3--------------| 
D |---0---0-----0--------2---2-----------------------------------------| 
A |-0------------------2---------------2-------------------------------| 
D |--------------------------------------------------------------------| 
            You look so alone 

D |---------0---------------0---------------0---------------0----------| 
A |-----3-----3---3-----2-----2---2-----0-----0---0-----0-----0---0----| 
F#|---1---1-----1-----1---1-----1-----0---0-----0-----0---0-----0---X4-| 
D |--------------------------------------------------------------------| 
A |-3---------------2---------------0---------------0------------------| 
D |--------------------------------------------------------------------| 

   For the second Chorus I usually roll off the frets which are 
   changing to give it more interest and the song some development 

D |---------0---------------0---------------0---------------0----------| 
A |-----3-----3--p0-----2-----2--p0-----0-----0---0-----0-----0---0----| 
F#|---1---1-----1-----1---1-----1p0---0---0-----0-----0---0-----0---X4-| 
D |--------------p0----------------------------------------------------| 
A |-3------------p0-2------------p0-0---------------0------------------| 
D |--------------------------------------------------------------------| 
                                                        I'm gonna give 


Chorus 

(I tend to pick the third and final Chorus like the bridge.) 

D |-----------------0---------------0----------------------------------| 
A |-3---------------2---------------0----------------------------------| 
F#|-1---------------1---------------0-------------------------------X4-| 
D |-2---------------0---------------0----------------------------------| 
A |-3---------------2---------------0----------------------------------| 
D |---------------------------------0----------------------------------| 
       All my          love to         you              I'm gonna give a- 


Verse 

D |-0-----------------------------------------------------------------------| 
A |---0-------------0---------------0---------------0---------------2-------| 
F#|-----0-------1-----1---1-----1-----1---1-----1-----1---1-----1-----1---1-| 
D |-------0---2---2-----2-----2---2-----2-----2---2-----2-----0---0-----0---| 
A |---------2---------------2---------------3---------------2---------------| 
D |-------------------------------------------------------------------------| 
               Isaac.... 



************************************ 

| p  Pull-off 

************************************ 

roll up this ad to continue

share this page

See Also: