E-Chords
B.B. King

Three o'clock(Tabs)

B.B. King

roll up this ad to continue

-------7--9b11---7/\/\/\/\--5---------------------------17-14----------------
---7-9------------------------7--------------------------------17-15---------
--------------------------------9---7b-------------------------------16--16--
-------------------------------------------9/\/\/\/\-------------------------
-----------------------------------------------------------------------------
-----------------------------------------------------------------------------

-----------------------------------------------------------------------------
----17---15b16---------------------------------------------------------------
-----------------------------------------------------------------------------
-----------------------------------------------------------------------------
-----------------------------------------------------------------------------
-----------------------------------------------------------------------------


Verse:
        Now here it is, three o'clock in the morning,
        Oh can't even close my eyes.  Oh yes.
        It's three o'clock in the morning baby,
        Oh, I can't even close my eyes.
        Well, you know I can't find my baby,
        Keep on lookin' be satisfied.

        I've looked around me, people,
        Hey, and my baby she knows she can't be found.
        Looked all around me, people,
        Oh, my baby, she can't be found.
        Well, you know if I don't find my baby,
        People, I'm going down to the Golden Ground.
        That's where the fellows hang out down there,
        They shoot pool, you know.

        Goodbye, everybody, 
        Oh, I do believe this is the end,
        Oh, oh, goodbye everybody,
        Oh I do believe that this is the end.
        Oh I want you to tell my baby,
        Oh, to forgive me for my sins.

-----------------------------------------------------------------------------
--12/\/\/\-15-12/\/\/\/-14---17b19r17p15-----------------15------------------
-----------------------------------------16----16-16----------16-------------
--------------------------------------------16-------------------------------
-----------------------------------------------------------------------------
-----------------------------------------------------------------------------

-----------------------------------------------------------------------------
--14b15--15-12-12/\/\/\/-12------12/\/\/----------14b16--14-12-12/\/\/-14----
-----------------------------------------------------------------------------
-----------------------------------------------------------------------------
-----------------------------------------------------------------------------
-----------------------------------------------------------------------------

-----------------------------------------------------------------------------
----12/\/\/\/\/\-------------14b16--14---12---12/\/\/\/\/------12/\/\/\/\/\--
-------------------13--------------------------------------------------------
-----------------------------------------------------------------------------
-----------------------------------------------------------------------------
-----------------------------------------------------------------------------

A guy feels lonely then, when you here something like that

-----------------------------------------------------14b17--14-12------------
----------15--17--17b19---15b17--16----------14b16-----------------15p12-----
---16/\/\---------------------------16/\/\/\-----------------------------13--
-----------------------------------------------------------------------------
-----------------------------------------------------------------------------
-----------------------------------------------------------------------------


----------------------------------12b14--12----------------------------------
---12--14b16----12/\/\/\---15b16-------------16b17-(17)--(17)--15b-----------
-------------------------------------------------------------------16-16/\/\-
-----------------------------------------------------------------------------
-----------------------------------------------------------------------------
-----------------------------------------------------------------------------

You can't do whatever you wanna do.
Because your mind is on the person you know.

-----------------------------------------------------------------------------
----15b17-15------------------------------------------18--15-----------------
-------------16-16/\/-----------------------------------------16-16-----18b20
---------------------------18--16--16--16--16------------------------16------
-----------------------------------------------18----------------------------
-----------------------------------------------------------------------------

----------14b17--14--12------------------------------------------------------
-------------------------15p12-----------------------------------------------
----16---------------------------------------------------------------12/\12/-----------------------------------------------------------------------------
-----------------------------------------------------------------------------
-----------------------------------------------------------------------------
                                     You figure something you've done

-----------------------------------------------------------------------------
---12/\/\/\----------------------------------------------------------12------
-----------------------------------------------------------------------------
-----------------------------------------------------------------------------
-----------------------------------------------------------------------------
-----------------------------------------------------------------------------
             You don't know what it is because she won't tell you

But every time you look at her, sh just starts to crying and won't say
nothing.

-----------------------------------------------------------------------------
----14b15r14p12-------12b14-------------------------------12/\/\/\/\/\/\/\/--
-----------------13----------------------------------------------------------
-----------------------------------------------------------------------------
-----------------------------------------------------------------------------
-----------------------------------------------------------------------------
                               Then you say to yourself

                It's my own fault, baby,
                Treat me the way you wanna do,
                Oh, yes, my own fault, baby,
                Treat me the way you wanna do.
                Because when you would love me, baby, 
                Oh, a good time looked down,
                That wouldn't be true.

Guitar Solo I:
----------------------------------------------12---------12------------------
----14b16---12/\/\------12/\/\--14-----15b16------15b16------15-12--12/\/\/\-
-----------------------------------------------------------------------------
-----------------------------------------------------------------------------
-----------------------------------------------------------------------------
-----------------------------------------------------------------------------

--------------------14b17--14-17-14--12------------------------12------------
-----15b17-----12------------------------15p12-----12--15b16-------17b19r17--
------------------------------------------------13---------------------------
-----------------------------------------------------------------------------
-----------------------------------------------------------------------------
-----------------------------------------------------------------------------

-------------------12----------------------------19/\/\/\--19\---------------
--------14b15b16-------14b15-12/\/\/\----12--14------------19\--
share this page

See Also: