E-Chords
B.B. King

Please Love Me(Tabs)

B.B. King

roll up this ad to continue

Intro 
e|--10/11-11-11-11-11-11-11-11-11-10/11-11-11---------------------------------| 
B|--10/11-11-11-11-11-11-11-11-11-10/11-11-11-10/11---------------------------| 
G|--------------------------------------------11/12---------------------------| 
D|--------------------------------------------------13~-----------------------| 
A|----------------------------------------------------------------------------| 
E|----------------------------------------------------------------------------| 

e|--10/11-11-11-11-11-11-11-11-11-10/11-11-11---------------------------------| 
B|--10/11-11-11-11-11-11-11-11-11-10/11-11-11-10/11---------------------------| 
G|--------------------------------------------11/12--------------------11-11--| 
D|--------------------------------------------------13~-------------13--------| 
A|----------------------------------------------------------------------------| 
E|----------------------------------------------------------------------------| 

e|------------------------------------------------------------------------------------| 
B|------------------------------------11----------------------------------10/11-10/11-| 
G|-13b14-13p11----11------------11-13----13b14---13p11----11--------------11/12-11/12-| 
D|-------------11----13~-----13------------------------13----13~---11-----------------| 
A|----------------------------------------------------------------------13------------| 
E|------------------------------------------------------------------------------------| 

e|-----------------------------------10/11-10/11----------------10/11-10/11-10/11-| 
B|--------------------------------11-10/11-10/11--10/11---------10/11-10/11-10/11-| 
G|--13b14b13p11-------------11-13-----------------11/12---------------------------| 
D|--------------13-13~---13------------------------------13-13~-------------------| 
A|--------------------------------------------------------------------------------| 
E|--------------------------------------------------------------------------------| 

e|-----------------------------11--13--11-------------------------------------| 
B|-----------------------------11--13--11-------------------------------------| 
G|--11b12------11b12pb12-------12--13--12-------------------------------------| 
D|---------13------------13~-------13-----------------------------------------| 
A|----------------------------------------------------------------------------| 
E|----------------------------------------------------------------------------| 




Verse 
The saxaphone part is something like this, the guitar plays licks in the same shape as the intro 
e|----------------------------------------------------------------------------| 
B|----------------------------------------------------------------------------| 
G|----------------------------------------------------------------------------| 
D|----------------------------------------------------------------------------| 
A|--11-13-11-13-11-13-11------------------------------------------------------| 
E|--11-11-11-11-11-11-11------------------------------------------------------| 

repeat 16 times, then a lick,3 times lick, 3 times lick, solo 


solo 


e|--10/11-11-11-11-11-11-11-11-11-10/11-11-11--10/11--10/11-------------------| 
B|--10/11-11-11-11-11-11-11-11-11-10/11-11-11--10/11--10/11--10/11------------| 
G|---------------------------------------------11/12--11/12--11/12------------| 
D|----------------------------------------------------~-------------13~-------| 
A|----------------------------------------------------------------------------| 
E|----------------------------------------------------------------------------| 

e|--10/11-11-11-11-11-11-11-11-11-10/11-11-11----------------------------------| 
B|--10/11-11-11-11-11-11-11-11-11-10/11-11-11----------------------------------| 
G|----------------------------------------------13b14-13b14-13b14--11b1212-----| 
D|-------------------------------------------------------------------------13~-| 
A|-----------------------------------------------------------------------------| 
E|-----------------------------------------------------------------------------| 

e|--------------------------11---11------------------------------14b-11----------| 
B|-------13------------14b15--14---14-11-----------------------------11----------| 
G|--13b15---13-11------------------------14-13-11----11h13 11h12--------13-11h12-| 
D|----------------13~-----------------------------13-----------------------------| 
A|-------------------------------------------------------------------------------| 
E|-------------------------------------------------------------------------------| 

e|-------------------------------------------------------11-14b15-11------------------------| 
B|-----------------11------11----------------11-13b14-11-------------11---------------------| 
G|--11-12-13-13b14-----13----11h12-----11-13----------------------------13b14-13-11---------| 
D|----------------------------------13----------------------------------------------13------| 
A|------------------------------------------------------------------------------------------| 
E|------------------------------------------------------------------------------------------| 

e|-------------------11---------------------------------------------------------| 
B|--11-----------11-------11--11------------------------------------------------| 
G|--11h12----12--12-------13--13------------------------------------------------| 
D|--13-------13-----------12--12------------------------------------------------| 
A|------------------------13--13------------------------------------------------| 
E|------------------------------------------------------------------------------| 

Verse 
repeat sax 11 times, lick, sax 3 times,lick, sax 3 times, lick, sax two times, outro lick 



************************************ 

| /   Slide up 
| ~   Vibrato 
| p   Pull-off 
| b   Bend 
| pb  Pre-bend 
| h   Hammer-on 

************************************ 
share this page

See Also: