E-Chords
B.B. King

B.B.King Guitar Style(Tabs)

B.B. King

roll up this ad to continue

Watch the video lesson
1ex
|------------10-12\-|
|------10-12--------|
|-9-11--------------|
|-------------------|
|-------------------|
|-------------------|


2 ex
|----------------------|
|-------10~-12~-12b14~-|
|-9/11~----------------|
|----------------------|
|----------------------|
|----------------------|

4 ex
|---------------------------10-12~---------------------17\-|
|---------10~-12--12b14b15----------12b14r12~-10--10~------|
|-9-/11~---------------------------------------------------|
|----------------------------------------------------------|
|----------------------------------------------------------|
|----------------------------------------------------------|

5ex

|-12b14-12-11-10-9-10-11-12-8/9--------|
|-------------------------------10---8~|
|----------------------------------9---|
|--------------------------------------|
|--------------------------------------|
|--------------------------------------|

6 ex
|-----9-----8-----7-----5-5-|
|-------------------------8-|
|-8/9---9/8---8/7---7/6---6-|
|-------------------------7-|
|---------------------------|
|---------------------------|

ex 7

|-4/5-5-5-|----|-4/5-5---5-----5-|
|-6/7-7-7-|----|-6/7-5h7-5-----8-|
|---------|(4X)|-----------5h6-6-|
|---------|----|---------------7-|
|---------|----|-----------------|
|---------|----|-----------------|



ex 8

|-10b12-10-8------8--10b12-10-9------8/9-|
|------------10-7---------------10-7-----|
|----------------------------------------|
|----------------------------------------|
|----------------------------------------|
|----------------------------------------|

ex9

|------------8/9-12-9/10-9-----17~-|
|-8/10-10-10---------------10------|
|----------------------------------|
|----------------------------------|
|----------------------------------|
|----------------------------------|

ex10

|-----8h10-10/11-10h11p10p8----10----8/9------|
|-8h10----------------------10----10-----10-8-|
|---------------------------------------------|
|---------------------------------------------|
|---------------------------------------------|
|---------------------------------------------|

|-----------------------|
|-----------------------|
|--9/7h8p7p5---7---5b6--|
|------------7---7------|
|-----------------------|
|-----------------------|
share this page

See Also: