E-Chords
Ballyhoo

Walk Away(Tabs)

Ballyhoo

roll up this ad to continue

Intro: 

e|-------5-------4------9-----5-------| 
B|-------5-------6------10----7-------| 
G|-------6-------6------11----7-------| 
D|-------7-------6------11----7-------| 
A|-------7-------4------9-----5-------| 
E|-------5----------------------------| 

Verse:  

e|-------5-------7------5-----7-------| \ 
B|-------5-------9------7-----9-------|  \   
G|-------6-------9------7-----9-------|  | 
D|-------7-------9------7-----9-------|  | x2 
A|-------7-------7------5-----7-------|  / 
E|-------5----------------------------| / 

PreChorus: (All the love letters...) 

e|-------4-----5------5------7--------| 
B|-------6-----5------7------9--------| 
G|-------6-----6------7------9--------| 
D|-------6-----7------7------9--------| 
A|-------4-----7------5------7--------| 
E|-------------5----------------------| 

Chorus Pt 1: (Sometimes its easier to walk away...) 

e|-------5-------4------9-----5-------| \ 
B|-------5-------6------10----7-------|  \ 
G|-------6-------6------11----7-------|  | 
D|-------7-------6------11----7-------|  | x2 
A|-------7-------4------9-----5-------|  / 
E|-------5----------------------------| / 

Chorus Pt 2: (Girl we just cant take much more...) 

e|-------5-------4-------9----7---5---7------------| 
B|-------5-------6-------10---9---7---9------------| 
G|-------6-------6-------11---9---7---9------------| 
D|-------7-------6-------11---9---7---9------------| 
A|-------7-------4-------9----7---5---7------------| 
E|-------5-----------------------------------------| 

Chorus Pt 3: (Lets just call it...) 

e|-------5-------4-------9----7----5------------| 
B|-------5-------6-------10---9----5------------| 
G|-------6-------6-------11---9----6------------| 
D|-------7-------6-------11---9----7------------| 
A|-------7-------4-------9----7----7------------| 
E|-------5-------------------------5------------| 

Solo: 

e|----------------------------------------------------------------------------------------| 
B|----------------------------------------------------------------------------------------| 
G|----------------------------------------------------------------------------------------| 
D|------------5-6-7---7--9--7--6--6--7--9--9---9p7----9b^11--9b^11--9b^11--9b^11----------| 
A|-----4-5-7------------------------------------------------------------------------------| 
E|--/5------------------------------------------------------------------------------------| 

e|----------------------------------------------------------------------------------------| 
B|----------------------------------------------------------------------------------------| 
G|-----------------------6h7p6--/11--9--9-------------------------------10~~--------------| 
D|--9p7-7--------7-------------------------12--12p11--9------9--11--12--------------------| 
A|---------7--9-----9~~----------------------------------12-------------------------------| 
E|----------------------------------------------------------------------------------------| 

e|----------------------------------------------------------------------10----------------| 
B|------------------------------------------------------12--------------12b14-------------| 
G|--14-14-14--13--11--13--11------11~~------11--13--14------14--13--14--------------------| 
D|----------------------------14----------------------------------------------------------| 
A|----------------------------------------------------------------------------------------| 
E|----------------------------------------------------------------------------------------| 

Song Order: 

Intro 
Verse 
PreChorus 
Chorus Pt 1 
Chorus Pt 2 
Chorus Pt 3 
Verse 
PreChorus 
Chorus Pt 1 
Chorus Pt 2 
Chorus Pt 3 
Solo 
PreChorus 
Chorus 

Great band, catch them live if you get the chance. 

************************************ 

| /   slide up 
| \   slide down 
| h   hammer-on 
| p   pull-off 
| ~   vibrato 
| +   harmonic 
| x   Mute note 
| b   Bend 
| pb  Pre-bend 
| br  Bend release 
| pbr Pre-bend release 
| brb Bend release bend 

************************************ 
share this page

See Also: