E-Chords
Ballyhoo

Lost At Sea(Tabs)

Ballyhoo

roll up this ad to continue

                                    Intro 
----4-------8---6---4---8---6-------8---6---4-------6---4---3---4------------| 
-----------------------------------------------------------------------------| 
-----------------------------------------------------------------------------| 
-----------------------------------------------------------------------------| 
-----------------------------------------------------------------------------| 
-----------------------------------------------------------------------------| 

                                    Verse 
----4---4---4---4------x---x---x---x------x---x---x---x------4---4---4---4---| 
----4---4---4---4------8---8---8---8------6---6---6---6------4---4---4---4---| 
----5---5---5---5------8---8---8---8------6---6---6---6------5---5---5---5---| 
----6---6---6---6------8---8---8---8------6---6---6---6------6---6---6---6---| 
----6---6---6---6------6---6---6---6------4---4---4---4------6---6---6---6---| 
----4---4---4---4------6---6---6---6------4---4---4---4------4---4---4---4---| 

                                    Chorus 
----x---x---x---x------4---4---4---4------8---8---8---8------x---x---x---x---| 
----6---6---6---6------5---5---5---5------9---9---9---9------8---8---8---8---| 
----6---6---6---6------6---6---6---6-----10--10--10--10------8---8---8---8---| 
----6---6---6---6------6---6---6---6-----10--10--10--10------8---8---8---8---| 
----4---4---4---4------4---4---4---4------8---8---8---8------6---6---6---6---| 
----4---4---4---4------4---4---4---4------8---8---8---8------6---6---6---6---| 


                              Tabbed by Jack Brown 
                                      410 
                                   Inebriated 
share this page

See Also: